Oops, an error
Loading. Please wait.

Jane Bass Tab

1,104 views 1 this week
no commentswrite comment
1 2 3 4 5
please rate
add to favorites
launch autoscroll
font size
0
reset
guitar tuner
Tab Pro tools
  • play this tab
  • loop segment
  • change instrument
  • show fretboard
  • metronome
×
Best way to learn
"Jane"
Autoscroll
slow
fast
+/-
esc
set tempo
stop
Contributor
-------------------------------------------------------------------------------
			     JANE - The Loved Ones
-------------------------------------------------------------------------------

Tabbed By : Cookie
e-mail: playedwithapick@yahoo.com

Tuning:standard

(Starts out with just guitar)

The riff that makes up the majority of the song...
G|---------------------------------------------------------------------------|
D|---------------------------------------------------------------------------|
A|-4----------4--------4---------------------4-------------------------------|
E|----4---2-----4---2-----4---6---2---2---4----------(x1)--------------------|

then...
G|---------------------------------------------------------------------------|
D|---------------------------------------------------------------------------|
A|-------4-------------------------------------------------------------------|
E|-6--2-----4------(x2)------------------------------------------------------|

Chorus
G|---------------------------------------------------------------------------|
D|---------------------------------------------------------------------------|
A|-4----------4--------4---------------------4-------------------------------|
E|----4---2-----4---2-----4---6---2---2---4----------(x1)--------------------|

Then back to the verse
G|---------------------------------------------------------------------------|
D|---------------------------------------------------------------------------|
A|-4----------4--------4---------------------4-------------------------------|
E|----4---2-----4---2-----4---6---2---2---4----------(x2)--------------------|

then...
G|---------------------------------------------------------------------------|
D|---------------------------------------------------------------------------|
A|-------4-------------------------------------------------------------------|
E|-6--2-----4------(x2)------------------------------------------------------|

Chorus
G|---------------------------------------------------------------------------|
D|---------------------------------------------------------------------------|
A|-4----------4--------4---------------------4-------------------------------|
E|----4---2-----4---2-----4---6---2---2---4----------(x1)--------------------|

And that about it!
comments
We did not receive enough feedback on this tab! Please rate:
print report bad tab
1 2 3 4 5
I want to post or [tab]
guest
You may want to rate the tab now too:
select rating
Please do not post tabs as comments. Select "correction" instead!