Oops, an error
Loading. Please wait.

Massive Bass Tab

180 views 1 this week
no commentswrite comment
1 2 3 4 5
please rate
add to favorites
launch autoscroll
font size
0
reset
guitar tuner
Tab Pro tools
  • play this tab
  • loop segment
  • change instrument
  • show fretboard
  • metronome
Autoscroll
slow
fast
+/-
esc
set tempo
stop
Difficulty
intermediate
-----------------------------------------------------------------
MASSIVE - THE LOVED ONES
-----------------------------------------------------------------

Tabbed By : Chris (www.facebook.com/failurebydesignmusic)
e-mail: CLiv51@Yahoo.com

Tuning: Standard

Couldn't find a bass tab for this song, so I tried it out. I'd say 90 percent correct. I 
will post a second version when I work out some kinks. This is my first tab, so have 
fun! If you have any corrections please email me.

Intro/Verses - Play for every verse, Intro is played a little faster.
G|----4---------4-----------4-----------4---------|
D|------4-6-------4------------4-6---------4-6----|
A|-44-------444-----6-----------------------------|
E|---------------------555----------555-----------|

0:45 "What's the sense in praying..." (Listen closely for more accurate timing

G|---------------------------------------------------------------|
D|---------------------------------------------------------------|
A|-55555555-00000000-44444444-22222222-000000000-----------------|
E|---------------------------------------------------------------|

Back To Verses

"What's The Sense In Praying"

G|---------------------------------------------------------------|
D|---------------------------------------------------------------|
A|-55555555-00000000-44444444-22222222-000000000-----------------|
E|---------------------------------------------------------------|

"I'll Keep on coming back!" x2

G|---------------------------------------------------------------|
D|---------------------------------------------------------------|
A|-44-2-4-44-2-4--66-7-000000000000000---------------------------|
E|---------------------------------------------------------------|

Back to verses x2

(Keeps coming back, I guess we should fight it)

G|---------------------------------------------------------------|
D|---------------------------------------------------------------|
A|-444444444444--66-77-00000000----------------------------------|
E|---------------------------------------------------------------|

(Just take my hand, we'll keep fighting back.)

G|---------------------------------------------------------------|
D|---------------------------------------------------------------|
A|-55555555-00000000-44444444-22222222-000000000-----------------|
E|---------------------------------------------------------------|

(So keep on fighting back!)

G|---------------------------------------------------------------|
D|---------------------------------------------------------------|
A|-44-2-4-44-2-4--66-7-000000000000000---------------------------|
E|---------------------------------------------------------------|

Outro

G|----4------|
D|------4-6--|
A|-44--------|
E|-----------|
comments
We did not receive enough feedback on this tab! Please rate:
print report bad tab
1 2 3 4 5
I want to post or [tab]
guest
You may want to rate the tab now too:
select rating
Please do not post tabs as comments. Select "correction" instead!