Oops, an error
Loading. Please wait.

Sickening Bass Tab

253 views 1 this week
no commentswrite comment
1 2 3 4 5
please rate
add to favorites
launch autoscroll
font size
0
reset
guitar tuner
Autoscroll
slow
fast
+/-
esc
set tempo
stop
Help us to improve Ultimate-Guitar.com Take our survey!
×
Author
Loved ones - keep your heart - Sickening

I am slightly unsure on the intro/verse. It may well be wrong.
I think he’s constantly hitting the open d string whilst playing the g string part. I
the easiest way to do this was to either constantly pick downwards whilst muting the g
when necessary or only hitting it when necessary, though I have to admit I’m not sure 
this is the best strategy, therefore any help would be much appreciated!

I know the timing isn’t correct but listen and it should become clear

Please rate!


Intro/verse (0:07)

G|-7-66666-99-666-77-66-777-99-66-777-99-|
D|-0000000000000000000000000000000000000-|
A|---------------------------------------| play a fair few times
E|---------------------------------------|

Pre-Chorus (0:53)

G|-----------------------------------------------------7-6-7-9~-|
D|-------------7-7------------------7-77777777------------------|
A|-777777777777-7-7-555555555555--------------------------------|
E|------------------------------555------------0000000----------|

Then:

Intro/verse (1:08) play a fair few times

Pre-chorus 2 (1:53)

G|-----------------------------------------------------679-99-|
D|-------------7-7------------------7-77777777----------------|
A|-777777777777-7-7-555555555555------------------------------|
E|------------------------------555------------0000000--------|


Chorus: (2:07)

G|-----------7766-111199----------777-999-111111-131313-16161616-|
D|---------------------------------------------------------------|
A|---------------------------------------------------------------|
E|-5>-0>-2>-------------5>-0>-2>---------------------------------|

G|---------------------------777-999-111111-131313-16161616-|
D|----------------------------------------------------------|
A|----------5554555-----------------------------------------|
E|-5>-0>-2>---------5>-0>-2>--------------------------------|

G|-777-999-111111-131313-16161616-14~-|
D|------------------------------------|
A|------------------------------------|
E|------------------------------------|

Then:
Intro/verse (2:45) play a fair few times
Suggest correction
What's this?
You can suggest a correction to this tab. Community and Mods will review your correction and vote to approve or reject it.
comments
We did not receive enough feedback on this tab! Please rate:
print report bad tab
1 2 3 4 5
guest
You may want to rate the tab now too:
select rating
Please do not post tabs as comments. Select "correction" instead!