Oops, an error
Loading. Please wait.

The Loved One Chords

2,633 views 6 this week
no commentswrite comment
1 2 3 4 5
please rate
add to favorites
launch autoscroll
font size
0
reset
transpose
0
reset
display chords
guitar tuner
Tab Pro tools
  • play this tab
  • loop segment
  • change instrument
  • show fretboard
  • metronome
×
Best way to learn
"The Loved One"
Autoscroll
slow
fast
+/-
esc
set tempo
stop
Contributor
Difficulty
novice
-------------------------------------------------------------------------------
                             The Loved One - The Loved Ones
-------------------------------------------------------------------------------
This is an Aussie classic from way back when. Smoke six packs of cigarettes before 
trying to sing this!


Tabbed by: Rockin Ron

Tuning: Standard

Chords
        G.      B.       E.      D.      C
e|------3-------X----------------2----------------------------------------------|
B|---------------4----------------3------1--------------------------------------|
G|--------------4-------1-------2-----------------------------------------------|
D|--------------4--------2---------------2--------------------------------------|
A|-------2--------------2------------------3------------------------------------|
E|-------3----------------------------------------------------------------------|

Intro (repeat 8 times)

G B B E  followed by two hand claps for two beats
v  ^v   ^ 

End with.....

D D B
v^   v

The verses are sung with no music, the chords end the words....

Yonder she's walkin' D D B
She comes my way D D B
Her red dress on D D B
Her long black hair D D B
Walkin like D D B
Talkin like D D B
Wantin like D D B
She comes to me D D B C

CHORUS

G              C     D    G
Oh baby I love you so
C         D    G
I need you now
C        D    G
I want you back
D
I can't go on

G B E 
Helpless baby
G B E 
Evil child
G B E 
I've know you well
G B E 
And if you want to stay
G B E 
Well that's alright
G B E 
That's alright D D B
And now she's gone D D B
She's waLkin away D D B
Her red dress on D D B
Her long black hair D D B
Well I love her so D D B
And now she'll come runnin D D B
Anytime I say now D D B
Well that's alright D D B C

Repeat chorus 3 times and end with

GBBE

************************************

| /   slide up
| \   slide down
| h   hammer-on
| p   pull-off
| ~   vibrato
| +   harmonic
| x   Mute note
| b   Bend
| pb  Pre-bend
| br  Bend release
| pbr Pre-bend release
| brb Bend release bend

************************************
comments
We did not receive enough feedback on this tab! Please rate:
print report bad tab
1 2 3 4 5
I want to post or [tab]
guest
You may want to rate the tab now too:
select rating
Please do not post tabs as comments. Select "correction" instead!