Oops, an error
Loading. Please wait.

You Are Everything Tab

version 2
version 2

Whole song

472 views 3 this week
no commentswrite comment
1 2 3 4 5
please rate
add to favorites
launch autoscroll
font size
0
reset
how to read this tab
guitar tuner
Autoscroll
slow
fast
+/-
esc
set tempo
stop
Help us to improve Ultimate-Guitar.com Take our survey!
×
intro
e-------5-------------------7-------5-------3---|
B-----7-------------------7---------------------|
G---7----------6-6------7---------6-------4-----|
D-----------7----7--------------7-------5-------|
A-----------------------------------------------|
E-----------------------------------------------|

upstroke
e---7---7---5---5---3---3---3---3-5---|
B---7---7---7---7---3---3---3---3-5---|
G---7---7---7---7---3---3---3---3-5---|
D-------------------------------------|
A-------------------------------------|
E-------------------------------------|

chorus
e------0------3------2-------------|
B------0------3------3------2------|
G------1------0------2------2------|
D------2------0------0------2------|
A------2------2--------------------|
E------0------3--------------------|
Suggest correction
Give kudos to tab author, rate the tab!
1 2 3 4 5
comments
print report bad tab
guest
You may want to rate the tab now too:
select rating
Please do not post tabs as comments. Select "correction" instead!