Oops, an error
Loading. Please wait.

Angela tab

version 2
version 2

Whole song

9,730 views 306 this week
1 commentread comment
1 2 3 4 5
x 38
add to favorites
×
Save as Personal and add changes to this tab that will be seen only by you. Learn more ›
×
You can save this tab as Personal to edit and correct it or add notes. All changes will be seen only by you. Learn more »
launch autoscroll
font size
0
reset
how to read this tab
guitar tuner
edit
Autoscroll
slow
fast
+/-
esc
set tempo
stop
Kudos to satir3 for nailing the chord progression and laurahoehner for getting the basic fingerpicking
pattern, I just wanted to merge the two into a proper tab and tweak some things in the fingerpicking that I
hear differently. Might not be 100% spot on, but it's about as close as I can get. Enjoy!

Note: the lyrics aren't in time with the tablature, but it's the best I could do with formatting. Figured
it'd be better to have the lyrics right by the tab. Super easy rhythm though, nothing special.


************************************

Capo 4

All notes are eighth notes (1 and 2 and 3 and 4 and) with the bass note plucked on the down beat (1/2/3/4)


Intro:

    G                       Dm                      C
e|-----------------3-----3-----1-----1-----1-----0--------------------------------------------------|
B|-----0-----0-----0-----0-----3-----3-----3-----1-----1-----1-----1-----1-----1-----1-----------1--|
G|-----0-----0-----------------------------------------0-----0-----0-----0-----0-----0-----0-----0--|
D|--------------------------0-----0-----0-----0--------------------------------------0h2------------|
A|--------------------------------------------------3-----3-----3-----3-----3-----3-----------3-----|
E|--3-----3-----3-----3-----------------------------------------------------------------------------|

    G                       Dm                      C
e|-----3-----3-----3-----3-----1-----1-----1-----0--------------------------------------------------|
B|-----0-----0-----0-----0-----3-----3-----3-----1-----1-----1-----1-----1-----1-----1-----1-----1--|
G|-----------------------------------------------------0-----0-----0-----0-----0-----0-----0-----0--|
D|--------------------------0-----0-----0-----0-----------------------------------------------------|
A|--------------------------------------------------3-----3-----3-----3-----3-----3-----3-----3-----|
E|--3-----3-----3-----3-----------------------------------------------------------------------------|


Verse 1:


When you left this town, with your windows down and the wilderness inside

    G                       Dm                      C
e|-----3-----3-----3-----3-----1-----1-----1-----0--------------------------------------------------|
B|-----0-----0-----0-----0-----3-----3-----3-----1-----1-----1-----1-----1-----1-----1-----1-----1--|
G|-----------------------------------------------------0-----0-----0-----0-----0-----0-----0-----0--|
D|--------------------------0-----0-----0-----0-----------------------------------------------------|
A|--------------------------------------------------3-----3-----3-----3-----3-----3-----3-----3-----|
E|--3-----3-----3-----3-----------------------------------------------------------------------------|

Let the exits pass, all the tar and glass 'til the road and sky align

    G                       Dm                      C
e|-----3-----3-----3-----3-----1-----1-----1-----0--------------------------------------------------|
B|-----0-----0-----0-----0-----3-----3-----3-----1-----1-----1-----1-----1-----1-----1-----1-----1--|
G|-----------------------------------------------------0-----0-----0-----0-----0-----0-----0-----0--|
D|--------------------------0-----0-----0-----0-----------------------------------------------------|
A|--------------------------------------------------3-----3-----3-----3-----3-----3-----3-----3-----|
E|--3-----3-----3-----3-----------------------------------------------------------------------------|


Chorus:


The strangers in this town, they raise you up just to cut you down

    G                       Dm                      C                       Am
e|-----------------3-----3-----1-----1-----1-----0--------------------------------------------------|
B|-----0-----0-----0-----0-----3-----3-----3-----1-----1-----1-----1-----1-----1-----1-----1-----1--|
G|-----0-----0-----------------------------------------0-----0-----0-----0-----2-----2-----2-----2--|
D|--------------------------0-----0-----0-----0-----------------------------------------------------|
A|--------------------------------------------------3-----3-----3-----3-----0-----0-----0-----0-----|
E|--3-----3-----3-----3-----------------------------------------------------------------------------|

Oh Angela, it’s a long time coming

    G                       Dm                      C
e|-----------------3-----3-----1-----1-----1-----0--------------------------------------------------|
B|-----0-----0-----0-----0-----3-----3-----3-----1-----1-----1-----1-----1-----1-----1----1-----1---|
G|-----0-----0-----------------------------------------0-----0-----0-----0-----0-----0----0-----0---|
D|--------------------------0-----0-----0-----0--------------------------------------0h2------------|
A|--------------------------------------------------3-----3-----3-----3-----3-----3----3-----3------|
E|--3-----3-----3-----3-----------------------------------------------------------------------------|


Verse 2:


And your Volvo lights lit up green and white with the cities on the signs

    G                       Dm                      C
e|-----3-----3-----3-----3-----1-----1-----1-----0--------------------------------------------------|
B|-----0-----0-----0-----0-----3-----3-----3-----1-----1-----1-----1-----1-----1-----1-----1-----1--|
G|-----------------------------------------------------0-----0-----0-----0-----0-----0-----0-----0--|
D|--------------------------0-----0-----0-----0-----------------------------------------------------|
A|--------------------------------------------------3-----3-----3-----3-----3-----3-----3-----3-----|
E|--3-----3-----3-----3-----------------------------------------------------------------------------|

But you held your course to some distant war in the corners of your mind

    G                       Dm                      C
e|-----3-----3-----3-----3-----1-----1-----1-----0--------------------------------------------------|
B|-----0-----0-----0-----0-----3-----3-----3-----1-----1-----1-----1-----1-----1-----1-----1-----1--|
G|-----------------------------------------------------0-----0-----0-----0-----0-----0-----0-----0--|
D|--------------------------0-----0-----0-----0-----------------------------------------------------|
A|--------------------------------------------------3-----3-----3-----3-----3-----3-----3-----3-----|
E|--3-----3-----3-----3-----------------------------------------------------------------------------|


Chorus:


From the second time around, the only love I ever found

    G                       Dm                      C                       Am
e|-----------------3-----3-----1-----1-----1-----0--------------------------------------------------|
B|-----0-----0-----0-----0-----3-----3-----3-----1-----1-----1-----1-----1-----1-----1-----1-----1--|
G|-----0-----0-----------------------------------------0-----0-----0-----0-----2-----2-----2-----2--|
D|--------------------------0-----0-----0-----0-----------------------------------------------------|
A|--------------------------------------------------3-----3-----3-----3-----0-----0-----0-----0-----|
E|--3-----3-----3-----3-----------------------------------------------------------------------------|

Oh Angela, it’s a long time coming

    G                       Dm                      C
e|-----------------3-----3-----1-----1-----1-----0--------------------------------------------------|
B|-----0-----0-----0-----0-----3-----3-----3-----1-----1-----1-----1-----1-----1-----1-----1-----1--|
G|-----0-----0-----------------------------------------0-----0-----0-----0-----0-----0-----0-----0--|
D|--------------------------0-----0-----0-----0-----------------------------------------------------|
A|--------------------------------------------------3-----3-----3-----3-----3-----3-----3-----3-----|
E|--3-----3-----3-----3-----------------------------------------------------------------------------|


Bridge thing:


Home at last

    G                                   C           Em
e|--------------------------------------------------------------------------------------------------|
B|-----0-----0-----0-----0-----0-----0-----1-----1-----0-----0-----0-----0-----0-----0-----0-----0--|
G|-----0-----0-----0-----0-----0-----0-----0-----0-----0-----0-----0-----0-----0-----0-----0-----0--|
D|--------------------------------------------------------------------------------------------------|
A|--------------------------------------3-----3-----2-----2-----2-----2-----2-----2-----2-----2-----|
E|--3-----3-----3-----3-----3-----3-----------------------------------------------------------------|


Verse 3:


Were you safe and warm in your coat of arms with your fingers in a fist?

    G                       Dm                      C
e|-----3-----3-----3-----3-----1-----1-----1-----0--------------------------------------------------|
B|-----0-----0-----0-----0-----3-----3-----3-----1-----1-----1-----1-----1-----1-----1-----1-----1--|
G|-----------------------------------------------------0-----0-----0-----0-----0-----0-----0-----0--|
D|--------------------------0-----0-----0-----0-----------------------------------------------------|
A|--------------------------------------------------3-----3-----3-----3-----3-----3-----3-----3-----|
E|--3-----3-----3-----3-----------------------------------------------------------------------------|

Did you hear the notes, all those static codes in the radio abyss?

    G                       Dm                      C
e|-----3-----3-----3-----3-----1-----1-----1-----0--------------------------------------------------|
B|-----0-----0-----0-----0-----3-----3-----3-----1-----1-----1-----1-----1-----1-----1-----1-----1--|
G|-----------------------------------------------------0-----0-----0-----0-----0-----0-----0-----0--|
D|--------------------------0-----0-----0-----0-----------------------------------------------------|
A|--------------------------------------------------3-----3-----3-----3-----3-----3-----3-----3-----|
E|--3-----3-----3-----3-----------------------------------------------------------------------------|


Chorus:


The strangers in this town, they raise you up just to cut you down

    G                       Dm                      C                       Am
e|-----------------3-----3-----1-----1-----1-----0--------------------------------------------------|
B|-----0-----0-----0-----0-----3-----3-----3-----1-----1-----1-----1-----1-----1-----1-----1-----1--|
G|-----0-----0-----------------------------------------0-----0-----0-----0-----2-----2-----2-----2--|
D|--------------------------0-----0-----0-----0-----------------------------------------------------|
A|--------------------------------------------------3-----3-----3-----3-----0-----0-----0-----0-----|
E|--3-----3-----3-----3-----------------------------------------------------------------------------|

Oh Angela, it’s a long time coming

    G                       Dm                      C                       Am
e|-----------------3-----3-----1-----1-----1-----0--------------------------------------------------|
B|-----0-----0-----0-----0-----3-----3-----3-----1-----1-----1-----1-----1-----1-----1-----1-----1--|
G|-----0-----0-----------------------------------------0-----0-----0-----0-----2-----2-----2-----2--|
D|--------------------------0-----0-----0-----0-----------------------------2-----2-----2-----------|
A|--------------------------------------------------3-----3-----3-----3-----------------------0-----|
E|--3-----3-----3-----3-----------------------------------------------------------------------------|

Oh Angela, spent your whole life running away

    G                       Dm                      C
e|-----------------3-----3-----1-----1-----1-----0--------------------------------------------------|
B|-----0-----0-----0-----0-----3-----3-----3-----1-----1-----1-----1-----1-----1-----1-----1-----1--|
G|-----0-----0-----------------------------------------0-----0-----0-----0-----0-----0-----0-----0--|
D|--------------------------0-----0-----0-----0-----------------------------------------------------|
A|--------------------------------------------------3-----3-----3-----3-----3-----3-----3-----3-----|
E|--3-----3-----3-----3-----------------------------------------------------------------------------|


Bridge thing:


Home at last

    G                                   C           Em
e|--------------------------------------------------------------------------------------------------|
B|-----0-----0-----0-----0-----0-----0-----1-----1-----0-----0-----0-----0-----0-----0-----0-----0--|
G|-----0-----0-----0-----0-----0-----0-----0-----0-----0-----0-----0-----0-----0-----0-----0-----0--|
D|--------------------------------------------------------------------------------------------------|
A|--------------------------------------3-----3-----2-----2-----2-----2-----2-----2-----2-----2-----|
E|--3-----3-----3-----3-----3-----3-----------------------------------------------------------------|

Home at last

    G                                   C           Em
e|--------------------------------------------------------------------------------------------------|
B|-----0-----0-----0-----0-----0-----0-----1-----1-----0-----0-----0-----0-----0-----0-----0-----0--|
G|-----0-----0-----0-----0-----0-----0-----0-----0-----0-----0-----0-----0-----0-----0-----0-----0--|
D|--------------------------------------------------------------------------------------------------|
A|--------------------------------------3-----3-----2-----2-----2-----2-----2-----2-----2-----2-----|
E|--3-----3-----3-----3-----3-----3-----------------------------------------------------------------|


Other bridge:


Vacancy, hotel room, lost in me, lost in you

    G                       Dm                      C                       Am
e|-----------------3-----3-----1-----1-----1-----0--------------------------------------------------|
B|-----0-----0-----0-----0-----3-----3-----3-----1-----1-----1-----1-----1-----1-----1-----1-----1--|
G|-----0-----0-----------------------------------------0-----0-----0-----0-----2-----2-----2-----2--|
D|--------------------------0-----0-----0-----0-----------------------------------------------------|
A|--------------------------------------------------3-----3-----3-----3-----0-----0-----0-----0-----|
E|--3-----3-----3-----3-----------------------------------------------------------------------------|

Angela, on my knee, I belong, I believe

    G                       Dm                      C                       Am
e|-----------------3-----3-----1-----1-----1-----0--------------------------------------------------|
B|-----0-----0-----0-----0-----3-----3-----3-----1-----1-----1-----1-----1-----1-----1-----1-----1--|
G|-----0-----0-----------------------------------------0-----0-----0-----0-----2-----2-----2-----2--|
D|--------------------------0-----0-----0-----0-----------------------------2-----2-----2-----------|
A|--------------------------------------------------3-----3-----3-----3-----------------------0-----|
E|--3-----3-----3-----3-----------------------------------------------------------------------------|


Bridge thing:


Home at last

    G                                   C           Em
e|--------------------------------------------------------------------------------------------------|
B|-----0-----0-----0-----0-----0-----0-----1-----1-----0-----0-----0-----0-----0-----0-----0-----0--|
G|-----0-----0-----0-----0-----0-----0-----0-----0-----0-----0-----0-----0-----0-----0-----0-----0--|
D|--------------------------------------------------------------------------------------------------|
A|--------------------------------------3-----3-----2-----2-----2-----2-----2-----2-----2-----2-----|
E|--3-----3-----3-----3-----3-----3-----------------------------------------------------------------|

Home at last

    G                                   C           Em
e|--------------------------------------------------------------------------------------------------|
B|-----0-----0-----0-----0-----0-----0-----1-----1-----0-----0-----0-----0-----0-----0-----0-----0--|
G|-----0-----0-----0-----0-----0-----0-----0-----0-----0-----0-----0-----0-----0-----0-----0-----0--|
D|--------------------------------------------------------------------------------------------------|
A|--------------------------------------3-----3-----2-----2-----2-----2-----2-----2-----2-----2-----|
E|--3-----3-----3-----3-----3-----3-----------------------------------------------------------------|

Home at last

    G                                   C           Em
e|--------------------------------------------------------------------------------------------------|
B|-----0-----0-----0-----0-----0-----0-----1-----1-----0-----0-----0-----0-----0-----0-----0-----0--|
G|-----0-----0-----0-----0-----0-----0-----0-----0-----0-----0-----0-----0-----0-----0-----0-----0--|
D|--------------------------------------------------------------------------------------------------|
A|--------------------------------------3-----3-----2-----2-----2-----2-----2-----2-----2-----2-----|
E|--3-----3-----3-----3-----3-----3-----------------------------------------------------------------|

Home at last

    G                                   C           Em
e|--------------------------------------------------------------------------------------------------|
B|-----0-----0-----0-----0-----0-----0-----1-----1-----0-----0-----0-----0-----0-----0-----0-----0--|
G|-----0-----0-----0-----0-----0-----0-----0-----0-----0-----0-----0-----0-----0-----0-----0-----0--|
D|--------------------------------------------------------------------------------------------------|
A|--------------------------------------3-----3-----2-----2-----2-----2-----2-----2-----2-----2-----|
E|--3-----3-----3-----3-----3-----3-----------------------------------------------------------------|


Outro:

Home at last

    G                       Dm                      C                       Am
e|-----------------------------1-----1-----1-----0--------------------------------------------------|
B|-----0-----0-----0-----0-----3-----3-----3-----1-----1-----1-----1-----1-----1-----1-----1-----1--|
G|-----0-----0-----0-----0-----------------------------0-----0-----0-----0-----2-----2-----2-----2--|
D|--------------------------0-----0-----0-----0-----------------------------------------------------|
A|--------------------------------------------------3-----3-----3-----3-----0-----0-----0-----0-----|
E|--3-----3-----3-----3-----------------------------------------------------------------------------|

(humming)

    G                       Dm                      C                       Am
e|-----------------------------1-----1-----1-----0--------------------------------------------------|
B|-----0-----0-----0-----0-----3-----3-----3-----1-----1-----1-----1-----1-----1-----1-----1-----1--|
G|-----0-----0-----0-----0-----------------------------0-----0-----0-----0-----2-----2-----2-----2--|
D|--------------------------0-----0-----0-----0-----------------------------2-----2-----2-----------|
A|--------------------------------------------------3-----3-----3-----3-----------------------0-----|
E|--3-----3-----3-----3-----------------------------------------------------------------------------|

    G
e|-----|
B|-----|
G|-----|
D|-----|
A|-----|
E|--3--|

            
            
Suggest correction
Creating personal tab
Creating personal tab
You can edit any tab online and save it as your Personal.

You can edit, replace or remove any tab part or add personal notes – all changes will be seen only by you.

Personal tabs can be accessed anytime from any device, even offline.
Learn more »
comments
print report bad tab
1 comment total.
+4 reply
greenboy95 10 Apr 21, 2016 12:09 PM

Thanks for this tab! For people like me it's hard to get everything I need just from listening to the song and looking at a chord progression.

guest
You may want to rate the tab now too:
select rating
Wanna post a correction for this tab? Suggest correction