Oops, an error
Loading. Please wait.

Darlene tab

version 2
version 2

Whole song

  • Much more accurate tablature, pulled right from a ... Show more
58 views 1 this week
no commentswrite comment
1 2 3 4 5
3 more votes to show rating
add to favorites
×
Save as Personal and add changes to this tab that will be seen only by you. Learn more ›
×
You can save this tab as Personal to edit and correct it or add notes. All changes will be seen only by you. Learn more »
launch autoscroll
font size
0
reset
how to read this tab
guitar tuner
edit
Autoscroll
slow
fast
+/-
esc
set tempo
stop
Author
About this tab version
Much more accurate tablature, pulled right from a live performance from the group, where it is easy to tell other versions are not as optimal. Was this info helpful? Yes No
This is like one of the few Lumineers songs where he uses the full Barre F chord and doesn't just play Fmaj7.
I used the live performance here to figure out the tab for the studio recording on their self-titled.
https://www.youtube.com/watch?v=8FUl8CKH8tU

[Intro]
e|----0--0-0----0--0-0----0--0---0-0----|
B|----5--5-5----3--3-3----1--1---1-1----|
G|----0--0-0----0--0-0----0--0---0-0----|      x2
D|----5--5-5----3--3-3----2--2---2-2----|     
A|--------------------------------------|
E|--------------------------------------|



[Verse]
e|----0--0-0----0--0-0----0--0---0-0----|
B|----5--5-5----3--3-3----1--1---1-1----|
G|----0--0-0----0--0-0----0--0---0-0----|
D|----5--5-5----3--3-3----2--2---2-2----|
A|--------------------------------------|
E|--------------------------------------|
      I see      you
      Standin'      there
      In your favorite   dress
      I like what  you wear

[Chorus]
C              F
Oh Darlene
C              F
Oh Darlene
C              F
Oh Darlene
C              F
Oh Darlene


[Verse 2]
e|----0--0-0----0--0-0----0--0---0-0----|
B|----5--5-5----3--3-3----1--1---1-1----|
G|----0--0-0----0--0-0----0--0---0-0----|
D|----5--5-5----3--3-3----2--2---2-2----|
A|--------------------------------------|
E|--------------------------------------|
      I give you     my ring
      In your shaking    hands
      You give me a sting
      With your crazy plans

[Chorus]
C              F
Oh Darlene
C              F
Oh Darlene
C              F
Oh Darlene
C              F
Oh Darlene

Suggest correction
Creating personal tab
Creating personal tab
You can edit any tab online and save it as your Personal.

You can edit, replace or remove any tab part or add personal notes – all changes will be seen only by you.

Personal tabs can be accessed anytime from any device, even offline.
Learn more »
Give kudos to tab author, rate the tab!
1 2 3 4 5
comments
print report bad tab
guest
You may want to rate the tab now too:
select rating
Wanna post a correction for this tab? Suggest correction