Oops, an error
Loading. Please wait.

Ho Hey Tab

version 2
version 2

Whole song

Interactive

Video

16,750 views 9 this week
no commentswrite comment
1 2 3 4 5
worth learning
x 5
add to favorites
launch autoscroll
font size
0
reset
how to read this tab
guitar tuner
Tab Pro tools
  • play this tab
  • loop segment
  • change instrument
  • show fretboard
  • metronome
×
Best way to learn
"Ho Hey"
Autoscroll
slow
fast
+/-
esc
set tempo
stop
Contributor
#----------------------------------PLEASE NOTE--------------------------------#
#This file is the author's own work and represents their interpretation of the#
#song. You may only use this file for private study, scholarship, or research.#
#-----------------------------------------------------------------------------#
#-- File created with Instab - http://www.pconline.com/~smcarey/instab.html --#
#-----------------------------------------------------------------------------#

Author/Artist: The Lumineers
Title: Ho Hey

P Pluck
p pull off

Tuning (eb A D G B E), Down ~ 10%, (eb, D) Down ~ 20%
Live Standard Tuning, Down ~ 10%
Key: (C# + A)


----|---------------------|--|
----|---------------------|--|
----|---5-----5--------5--|--|
----|---------5--------5--|--|
----|-8-8-7---7--7-7-7-7--|--|
----|---------------------|--|
        P

  Verse  



----|-----------------------------------------------------------------|
----|-----------------------------------------------------------------|
----|---5-----5--------5--5-5-5-5--5--5-5-5-5-7p5-7p5-5---5--------5--|
----|---------5--------5--5-5-5-7--7--7-7-x-x---------5---5--------5--|
----|-8-8-7---7--7-7-7-7--7-7-7-7--7--7-7-8-8-8---8---7---7--7-7-7-7--|
----|-----------------------------------------------------------------|
  

Mid Verse Change              "Sleeping..my" P   P   P




----|-------------------------------|--|
----|-------------------------------|--|
----|-5------5------4------5--------|--|
----|-5------7------5------5--------|--|
----|-7------7------5------7--------|--|
----|-------------------------------|--|
  

  Chorus 



----|----------------|--|
----|----------------|--|
----|-5------5-------|--|
----|-7------5-------|--|
----|-3------7-------|--|
----|----------------|--|
 

  Interlude Chords 
comments
print report bad tab
I want to post or [tab]
guest
You may want to rate the tab now too:
select rating
Please do not post tabs as comments. Select "correction" instead!