Oops, an error
Loading. Please wait.

In The Light intro tab

6,259 views 66 this week
4 commentsread comments
1 2 3 4 5
x 21
add to favorites
×
Save as Personal and add changes to this tab that will be seen only by you. Learn more ›
×
You can save this tab as Personal to edit and correct it or add notes. All changes will be seen only by you. Learn more »
launch autoscroll
font size
0
reset
how to read this tab
guitar tuner
edit
Autoscroll
slow
fast
+/-
esc
set tempo
stop
In the Light - The Lumineers (Intro)
Capo 2nd Fret


[Intro]

e|-----------------------------------------------------------|
B|-----3-----5-----3-----1--0--0-----1-----0-----------------|
G|----------------------------------------------(2)(0)-------|
D|-----------------------------------------------------------|
A|-----------------------------------------------------------|
E|-----3--3--3--3--3--3--3--3--3--3--3--3--3--3--3--3--------|


During "the idea's gone but I just can't let it go"

e|-----------------3-----------------------------------------|
B|-----3-----5-----------1--0--0-----1-----0-----------------|
G|----------------------------------------------(2)(0)-------|
D|-----------------------------------------------------------|
A|-----------------------------------------------------------|
E|-----3--3--3--3--3--3--3--3--3--3--3--3--3--3--3--3--------|


*******************
|(g)    Ghost note
*******************
Suggest correction
Creating personal tab
Creating personal tab
You can edit any tab online and save it as your Personal.

You can edit, replace or remove any tab part or add personal notes – all changes will be seen only by you.

Personal tabs can be accessed anytime from any device, even offline.
Learn more »
comments
print report bad tab
4 comments total. Showing first comments.
+1 reply
miller323334 352 Dec 09, 2016 01:09 AM

Nice tab, sounds great. I like to play the E melody note on the e string instead of the B string, but either way sounds great.

0 reply
robertocannella 10 May 19, 2017 06:43 PM

How do you play a ghost note.

0 reply
nibarluz 10 Jun 11, 2017 07:20 PM

A ghost note is played but very quietly, you may just play it by doing a pull off without doing any actual plucking (a lift off).

guest
You may want to rate the tab now too:
select rating
Wanna post a correction for this tab? Suggest correction