Oops, an error
Loading. Please wait.

Untitled Falling Tab

40 views 1 this week
no commentswrite comment
1 2 3 4 5
3 more votes to show rating
add to favorites
launch autoscroll
font size
0
reset
how to read this tab
guitar tuner
Autoscroll
slow
fast
+/-
esc
set tempo
stop
Help us to improve Ultimate-Guitar.com Take our survey!
×
Author
Difficulty
Capo
intermediate
4th fret
About this tab version
I couldn't find any tabs for this song, but it is really fun to play. Was this info helpful? Yes No
[Intro]
   C            Am           F                G
e|---------------------------------------------------------------------------|
B|----1------------1----------------1---------------0------------------------|
G|----0------------3------------2------2---------0-----0---------------------|
D|--------2------------------3------3---------------0------------------------|  x3
A|-3-----------0------2------------------------------------------------------|
E|--------------------------------------------3------------------------------|
       F          G
e|---------------------------------------------------------------------------|
B|--------1-------------0----------------------------------------------------|
G|-----2----2--------0-----0-------------------------------------------------|
D|--3-----3-------------0----------------------------------------------------|
A|---------------------------------------------------------------------------|
E|----------------3----------------------------------------------------------|


[Verse]

   C           Am            F                G
e|---------------------------------------------------------------------------|
B|----1------------1----------------1---------------0------------------------|
G|----0------------3------------2------2---------0-----0---------------------|
D|--------2------------------3------3---------------0------------------------|  x3
A|-3-----------0------2------------------------------------------------------|
E|--------------------------------------------3------------------------------|
       F          G
e|---------------------------------------------------------------------------|
B|--------1-------------0----------------------------------------------------|
G|-----2----2--------0-----0-------------------------------------------------|
D|--3-----3-------------0----------------------------------------------------|
A|---------------------------------------------------------------------------|
E|----------------3----------------------------------------------------------|

C      Am      F          G
I love you and everything about you wont you
C    Am       F            G
stay awake so i can get my work done in the  
C   Am     F            G
day okay   maybe in the meantime 
F          G
you and me will be fine 
       C      Am       F                  G
if you just relax and check your eyes for cataract 
     C         Am      F               G                         
it's plain to see that i was meant for you and you were
C         Am    F               G 
meant for me    darling hold me tightly
F               G
I think you and me we might be 

*strum*
Am          E           Am         E
falling... falling.... falling.....I'm falling in
 

   C           Am            F                G
e|---------------------------------------------------------------------------|
B|------1-----------1---------------1---------------0------------------------|
G|----0---0------2-----2--------2------2---------0-----0---------------------|
D|------2-----------2--------3------3---------------0------------------------| 
A|-3-----------0-------------------------------------------------------------|
E|--------------------------------------------3------------------------------|
      looooooooooooooooooooooooooooooove


  C           Am            F                G
e|---------------------------------------------------------------------------|
B|----1------------1----------------1---------------0------------------------|
G|----0------------3------------2------2---------0-----0---------------------|
D|--------2------------------3------3---------------0------------------------| 
A|-3-----------0------2------------------------------------------------------|
E|--------------------------------------------3------------------------------|


C      Am             F             G
Drama queen like you when you see a fire you grab the
C    Am      F                 G
gasoline and honey please calm down yes don't
C      Am            F            G
make a scene they're asking us to leave now
    F           G
and calling the police now
          C     Am         F               G
yes hes a manly man cause you're defending me just like a 
C        Am      F            G
punching bag but i can take a punch if you can
C      Am      F             G
take a jam you catch me when i fall and
F                       G
dress your wounds with alcohol 

     Am          E          Am          E
I'm falling.... falling... falling... falling in


   C           Am            F                G
e|---------------------------------------------------------------------------|
B|------1-----------1---------------1---------------0------------------------|
G|----0---0------2-----2--------2------2---------0-----0---------------------|
D|------2-----------2--------3------3---------------0------------------------| 
A|-3-----------0-------------------------------------------------------------|
E|--------------------------------------------3------------------------------|
      looooooooooooooooooooooooooooooove

  C           Am            F                G
e|---------------------------------------------------------------------------|
B|----1------------1----------------1---------------0------------------------|
G|----0------------3------------2------2---------0-----0---------------------|
D|--------2------------------3------3---------------0------------------------| 
A|-3-----------0------2------------------------------------------------------|
E|--------------------------------------------3------------------------------|
Suggest correction
Give kudos to tab author, rate the tab!
1 2 3 4 5
comments
print report bad tab
guest
You may want to rate the tab now too:
select rating
Wanna post a correction for this tab? Suggest correction