Oops, an error
Loading. Please wait.

Can You Give It bass

version 1
version 1

Whole song

3,075 views 1 this week
3 commentsread comments
1 2 3 4 5
x 3
add to favorites
×
Save as Personal and add changes to this tab that will be seen only by you. Learn more ›
×
You can save this tab as Personal to edit and correct it or add notes. All changes will be seen only by you. Learn more »
launch autoscroll
font size
0
reset
guitar tuner
edit
Autoscroll
slow
fast
+/-
esc
set tempo
stop
Author
---------------------------------------------------------------------------
			     Can You Give It – The Maccabees
---------------------------------------------------------------------------

I tabbed this from listening and watching live recordings, i think the album version is 
different.
listen for timing etc...

Intro
G|------------0-----------------0-------|
D|----------2---2-------------2---2-----|
A|-3-3333--3----------0-0000------------|x6
E|----------------------------------3---|

G|--------------------|
D|----------5---------|
A|-3-~-~-7---77-5-----|x2
E|--------------------|

G|-----------------------------------------------------------------------|
D|10-10101010-10-10101010-10-10101010------------------------------------|
A|------------------------------------7-7777-3-3333-3-3333-3-3333-3-3333-|
E|-----------------------------------------------------------------------|

G|-----------------------------------------------------------------------|
D|7-7777-7-7777-7-7777---------------------------------------------------|
A|----------------------7-7777-3-3333-3-3333-3-3333-3-3333---------------|
E|-----------------------------------------------------------------------|

G|--------------------|
D|----------5---------|
A|-3-~-~-7---77-5-----|x4
E|--------------------|

G|-----------------------------------------------------------------------|
D|7-7777-7-7777-7-7777---------------------------------------------------|
A|----------------------7-7777-3-3333-3-3333-3-3333-3-3333---------------|
E|-----------------------------------------------------------------------|

G|-----------------------------------------------------------------------|
D|7-7777-7-7777-7-7777---------------------------------5-----------------|
A|----------------------7-7777-3-3333-3-3333-3-3333-37---7-5-------------|
E|-----------------------------------------------------------------------|

G|---------------------------------|
D|-------------------------5-------|
A|-3-3333-3-3333-3-3333--7---77-5--|x4
E|---------------------------------|

G|---------------------------------|
D|---------2-5-2-----------5-------|
A|-3333-3-3-------0000-0-7---7-5---|x4
E|---------------------------------|

G|---------------|-----------|
D|---------------|---5-------|
A|-----pause-----|-7---77-5--|
E|---------------|-----------|=>

G|---------------------------------|
D|-------------------------5-------|
A|-3-3333-3-3333-3-3333--7---77-5--|x4
E|---------------------------------|

G|------------0-----------------0-------|
D|----------2---2-------------2---2-----|
A|-3-3333--3----------0-0000------------|x3
E|----------------------------------3---|

G|------------0---------|
D|----------2---2-------|
A|-3-3333--3--------3~~-|
E|----------------------|

===========================================================================

            
            
Suggest correction
Creating personal tab
Creating personal tab
You can edit any tab online and save it as your Personal.

You can edit, replace or remove any tab part or add personal notes – all changes will be seen only by you.

Personal tabs can be accessed anytime from any device, even offline.
Learn more »
Give kudos to tab author, rate the tab!
1 2 3 4 5
comments
print report bad tab
3 comments total.
0 reply
robsuj 92 Dec 15, 2009 08:53 AM

pretty gd but hard 2 follow

plus the bridge is rong i think :S

0 reply
teamcheck7 10 Mar 02, 2016 05:48 AM

pretty gd but hard 2 follow

plus the bridge is rong i think :S (2)

0 reply
samhussein1995 52 Aug 28, 2017 12:55 PM

seems perfect

guest
You may want to rate the tab now too:
select rating
Wanna post a correction for this tab? Suggest correction