Oops, an error
Loading. Please wait.

Can You Give It bass

version 2
version 2

Whole song

2,294 views 3 this week
1 commentread comment
1 2 3 4 5
x 3
add to favorites
×
Save as Personal and add changes to this tab that will be seen only by you. Learn more ›
×
You can save this tab as Personal to edit and correct it or add notes. All changes will be seen only by you. Learn more »
launch autoscroll
font size
0
reset
guitar tuner
edit
Autoscroll
slow
fast
+/-
esc
set tempo
stop
Author
---------------------------------------------------------------------------
			     Can You Give It – The Maccabees
---------------------------------------------------------------------------

Intro
G|----------------------------------------|
D|---------------------------------5------|
A|----------7-10-7---------------7---7----|x6
E|-8-8888--8-------------5-5555-------5---|

G|------------------|
D|----------5-------|
A|-3~~~~-7---77-5---|x2
E|------------------|

G|--------------------------------|
D|-7~~~~----10~~------------------|
A|-----------------3~~~~----(7)---|x2
E|--------------------------------|

G|------------------|
D|----------5-------|
A|-3-~-~-7---77-5--|x4
E|------------------|

G|--------------------------------|
D|-7~~~~----10~~------------------|
A|-----------------3~~~~----(7)---|
E|--------------------------------|

G|------------------------------------|
D|-7~~~~----10~~--------------5-------|
A|-----------------3~~~~----7---77-5--|x2
E|------------------------------------|

G|---------------------------------|
D|-------------------------5-------|
A|-3-3333-3-3333-3-3333--7---77-5--|x4
E|---------------------------------|

G|------------------------------------|
D|----------------------------5-------|
A|---------7-10-7-----------7---7-5---|x4
E|-8888-8-8-----------5555-5----------|

G|---------------|-----------|
D|---------------|---5-------|
A|-----pause-----|-7---77-5--|
E|---------------|-----------|=>

G|---------------------------------|
D|-------------------------5-------|
A|-3-3333-3-3333-3-3333--7---77-5--|x4
E|---------------------------------|

G|----------------------------------------|
D|---------------------------------5------|
A|----------7-10-7---------------7---7----|x3
E|-8-8888--8-------------5-5555-------5---|

G|------------------------|
D|------------------------|
A|----------7-10-7--------|
E|-8-8888--8--------8~~~--|

===========================================================================

            
            
Suggest correction
Creating personal tab
Creating personal tab
You can edit any tab online and save it as your Personal.

You can edit, replace or remove any tab part or add personal notes – all changes will be seen only by you.

Personal tabs can be accessed anytime from any device, even offline.
Learn more »
Give kudos to tab author, rate the tab!
1 2 3 4 5
comments
print report bad tab
1 comment total.
0 reply
dangerquarry 10 Sep 01, 2015 05:04 PM

Great tab, m8
But here's a small correction to the beginning

G|--------0------------------0------------|
D|-----------2----2-------------2----2----|
A|-3-3333--3------------0-0000-------------|
E|----------------------------------------|

it's the same notes and all but I've watched videos and that seems to be what he's doing. Of course either way works. oh and I'm not 100% sure about the rest of it but it seems like you got spot on with the notes. good job :)

guest
You may want to rate the tab now too:
select rating
Wanna post a correction for this tab? Suggest correction