Oops, an error
Loading. Please wait.

First Love intro tab

version 1
version 1

Intro

Whole song

16,373 views 6 this week
no commentswrite comment
1 2 3 4 5
x 5
add to favorites
×
Save as Personal and add changes to this tab that will be seen only by you. Learn more ›
×
You can save this tab as Personal to edit and correct it or add notes. All changes will be seen only by you. Learn more »
launch autoscroll
font size
0
reset
how to read this tab
guitar tuner
edit
Autoscroll
slow
fast
+/-
esc
set tempo
stop
Author
============================
Maccabees - First Love Intro
============================

This is the closest I could get with the intro, I think it sounds on the dot. 
I've only added the rhythm parts, the lead parts are quite good on some of the other tabs on here

Let me know if you think its good.

Palm muted

[Update 05.07.09] Wrong chord updated for 2nd part of intro (mistake)

   p.m        p.m        p.m        p.m
e|----------------------------------------------|
B|-(10)-------(10)-------(12)-------------------|    
G|--11--x8-----11--x8-----11--x8-----11--x8-----|     \
D|--11---------11---------11---------12---------|       x2
A|--0----------9----------11---------11---------|     /
E|----------------------------------------------|

   p.m        p.m        p.m        
e|------------------------------------------------------------|
B|-(10)-------(10)-------(12)--------12----12-12-12121212-----|
G|--11--x8-----11--x8-----11--x4-----11----11-11-11111111-----|
D|--11---------11---------11---------12----12-12-12121212-----|
A|--0----------9----------11---------11----11-11-11111111-----|
E|------------------------------------------------------------|


Heres the chords for the next part of the intro.

e|--12-12-12-12----9--9--9--9-------------------------------------|
B|--14-14-14-14----10-10-10-10----12-12-12-12---------------------|
G|--14-14-14-14----11-11-11-11----11-11-11-11--11--11-11-11-11-11-|
D|--14-14-14-14----11-11-11-11----12-12-12-12--12--12-12-12-12-12-|
A|--12-12-12-12----9--9--9--9-----11-11-11-11--11--11-11-11-11-11-|
E|----------------------------------------------------------------|

e|--12-12-12-12----9--9--9--9----------------------------------------|
B|--14-14-14-14----10-10-10-10----12-12-12-12------------------------|
G|--14-14-14-14----11-11-11-11----11-11-11-11------------------------|
D|--14-14-14-14----11-11-11-11----12-12-12-12--12--12-12-12-12-12-12-|
A|--12-12-12-12----9--9--9--9-----11-11-11-11--11--11-11-11-11-11-11-|
E|---------------------------------------------12--12-12-12-12-12-12-|

'Do you miss home...'


================
Comments welcome
================

Suggest correction
Creating personal tab
Creating personal tab
You can edit any tab online and save it as your Personal.

You can edit, replace or remove any tab part or add personal notes – all changes will be seen only by you.

Personal tabs can be accessed anytime from any device, even offline.
Learn more »
comments
print report bad tab
guest
You may want to rate the tab now too:
select rating
Wanna post a correction for this tab? Suggest correction