Oops, an error
Loading. Please wait.

First Love tab

version 3
version 3

Whole song

9,618 views 6 this week
1 commentread comment
1 2 3 4 5
x 3
add to favorites
×
Save as Personal and add changes to this tab that will be seen only by you. Learn more ›
×
You can save this tab as Personal to edit and correct it or add notes. All changes will be seen only by you. Learn more »
launch autoscroll
font size
0
reset
how to read this tab
guitar tuner
edit
Autoscroll
slow
fast
+/-
esc
set tempo
stop
The Maccabees 'First Love'

Brilliant song, even better album

This is with a capo on 9th, which sounds ridiculous but it seems to work OK

Intro "First Love..." 
e|-------------------------------------------------------------------------|
B|-------------------------------------------------------------------------|
G|-------------------------------------------------------------------------|
D|--------2-2---------2-2---------0-0-----3-3-3----------------------------|
A|3-3-3-3-3-3-0-0-0-0-0-0-2-2-2-2-2-2-2-2-2-2-2----------------------------|
E|-------------------------------------------------------------------------|

When the rest of the band kick in, carry on playing this underneath the 

e|--14---------------------------------------------------------------------|
B|-----11-------11---------------------------------------------------------|
G|-------------------------------------------------------------------------|
D|---------12--------------------------------------------------------------|
A|-------------------------------------------------------------------------|
E|-------------------------------------------------------------------------|

Verse:            
            C     G  C
Do you miss home?
            C     G  C
Do you miss home?
(p.m)       C      G       C    G
And are you co-eoo-eoo-eoo-eool?
C      G   C   
Symetricool

Chorus:

Dm                              C  G  C
Lets get married, and tick the boxes, says, and so she says
Dm                                C G C
Oh lets get married, and tick the boxes


2nd verse and chorus are exactly the same

Middle section;

Dm                                        F
Oh nothings perfect, so I'll have to make do-eo-eo-eo-eo-eo-eo

Dm                                       Am
Well its my mistake, and no mistake, and i would take it back if I could

F               Am
So stay with me tonight

F                                        Am
Well I've made my bed I'm lying here and pillow talking into it

F
Ive made my bed I'm lying here to entice you with this leopard print

C            G      C
and matching velvet duvet


Repeat Intro - like the beginning it starts off quiet and then builds up, and finishes on


e|------------|
B|------------|
G|------------|
D|---3--------|
A|---2--------|
E|------------|


Cheers

Josh
moshwithposh@hotmail.com



Suggest correction
Creating personal tab
Creating personal tab
You can edit any tab online and save it as your Personal.

You can edit, replace or remove any tab part or add personal notes – all changes will be seen only by you.

Personal tabs can be accessed anytime from any device, even offline.
Learn more »
Give kudos to tab author, rate the tab!
1 2 3 4 5
comments
print report bad tab
1 comment total.
0 reply
ollie.drummond 52 Sep 16, 2007 12:12 PM

surely you should play this without a capo, as A and E
because in the "coo-ee-ooool" bit you need open chords?

guest
You may want to rate the tab now too:
select rating
Wanna post a correction for this tab? Suggest correction