Oops, an error
Loading. Please wait.

Firt Love Acoustic tab

6,936 views 1 this week
4 commentsread comments
1 2 3 4 5
x 5
add to favorites
×
Save as Personal and add changes to this tab that will be seen only by you. Learn more ›
×
You can save this tab as Personal to edit and correct it or add notes. All changes will be seen only by you. Learn more »
launch autoscroll
font size
0
reset
how to read this tab
guitar tuner
edit
Autoscroll
slow
fast
+/-
esc
set tempo
stop
Difficulty
this is the acoustic version orlando played on freshly squeezed, i think its right...


First love, Last love

e--0--------9------|
a--0--------9------|
d--11------11------|
g--x--------x------|
b--x--------x------|
e--x--------x------|

Only love, it's only love
e--0----------0---|
a-11--------11----|
d-11--------12----|
g--x---------x----|
b--x---------x----|
e--x---------x----|

First love, Last love
Only love, it's only love

VERSE

Do you miss home
e--------------5-------0---|
a--------------7-------7---|
d--------------7-------7---| x2
g--------------6-------6---|
b--------------5-------0---|
e--------------5-------0---|

Do you miss home

And are you cool

e-----------5-5-5-5-5-5-5-5-0-0-0-0-0-0-0-0---|
a-----------7-7-7-7-7-7-7-7-7-0-0-0-0-0-0-0---|
d-----------7-7-7-7-7-7-7-7-7-0-0-0-0-0-0-0---| x2  (palm mute)
g-----------6-6-6-6-6-6-6-6-6-0-0-0-0-0-0-0---|
b-----------5-5-5-5-5-5-5-5-0-0-0-0-0-0-0-0---|
e-----------5-5-5-5-5-5-5-5-0-0-0-0-0-0-0-0---|

Symmetrical

e-----------5-5-5-5-5-5-5-5-0-0-0-0-0-0-0-0---|
a-----------7-7-7-7-7-7-7-7-7-0-0-0-0-0-0-0---|
d-----------7-7-7-7-7-7-7-7-7-0-0-0-0-0-0-0---| x2 (palm mute)
g-----------6-6-6-6-6-6-6-6-6-0-0-0-0-0-0-0---|
b-----------5-5-5-5-5-5-5-5-0-0-0-0-0-0-0-0---|
e-----------5-5-5-5-5-5-5-5-0-0-0-0-0-0-0-0---|

Bm
Let's get married

And tick the boxes

e--------------5-5-5-5-5-5-5-5-0-0-0-0-0-0-0-0---|
a--------------7-7-7-7-7-7-7-7-7-0-0-0-0-0-0-0---|
d--------------7-7-7-7-7-7-7-7-7-0-0-0-0-0-0-0---| x2
g--------------6-6-6-6-6-6-6-6-6-0-0-0-0-0-0-0---|
b--------------5-5-5-5-5-5-5-5-0-0-0-0-0-0-0-0---|
e--------------5-5-5-5-5-5-5-5-0-0-0-0-0-0-0-0---|

                          Bm
And so she says, lets get married

And tick the boxes

VERSE

Do you wanna be alone

Do you wanna be alone

And are you cool
Symmetrical, hypocritical, analytical
So critical

Bm
When nothing's perfect;

 I was hoping I would do

e------------------5-5-5-5-5-5-5-5-0-0-0-0-0-0-0-0---|
a------------------7-7-7-7-7-7-7-7-7-0-0-0-0-0-0-0---|
d------------------7-7-7-7-7-7-7-7-7-0-0-0-0-0-0-0---| x2
g------------------6-6-6-6-6-6-6-6-6-0-0-0-0-0-0-0---|
b------------------5-5-5-5-5-5-5-5-0-0-0-0-0-0-0-0---|
e------------------5-5-5-5-5-5-5-5-0-0-0-0-0-0-0-0---|

                 Bm
But I won't do, cuz nothing's perfect

                                   D
And ill have to make do

D
When it's my mistake
And no mistake

     Bm
And I would take it back, if I could

D
So stay with me tonight

            Bm
When I make my bed, I'll lie in it

          D
And pillow talk you into it

      Bm
I'll make my bed, I'll lie in it

   D
Entice you with its leopard print

        A
And matching velvet duvet

First love, Last love

e--0--------9------|
a--0--------9------|
d--11------11------|
g--x--------x------|
b--x--------x------|
e--x--------x------|

Only love, it's only love

e--0----------0---|
a-11--------11----|
d-11--------12----|
g--x---------x----|
b--x---------x----|
e--x---------x----|

            
            
Suggest correction
Creating personal tab
Creating personal tab
You can edit any tab online and save it as your Personal.

You can edit, replace or remove any tab part or add personal notes – all changes will be seen only by you.

Personal tabs can be accessed anytime from any device, even offline.
Learn more »
comments
print report bad tab
4 comments total. Showing first comments.
0 reply
CrazyYaz 725 Apr 09, 2007 02:40 AM

well uve written the tab upside down... but its pretty much all correct. well done

0 reply
Benbroom 52 Jun 19, 2007 01:35 PM

Intro

Palm Muted..........................
e------------------|-----------------|
a------------------|-----------------|
d--11-------11-----|--11-------11----|
g--11-x8----11-x8--|--11-x9----12-x7-|
b--0--------9------|--11-------11----|
e------------------|-----------------|

such a nice song

0 reply
Geeeeezer 173 Mar 10, 2008 11:33 AM

e-----------5-5-5-5-5-5-5-5-0-0-0-0-0-0-0-0---|
a-----------7-7-7-7-7-7-7-7-7-7-7-7-7-7-7-7---|
d-----------7-7-7-7-7-7-7-7-7-7-7-7-7-7-7-7---|
g-----------6-6-6-6-6-6-6-6-6-6-6-6-6-6-6-6---|
b-----------5-5-5-5-5-5-5-5-0-0-0-0-0-0-0-0---|
e-----------5-5-5-5-5-5-5-5-0-0-0-0-0-0-0-0---|

I may be wrong but I think the verse bit is that
great tab apart from that though, thanx

guest
Wanna post a correction for this tab? Suggest correction