Oops, an error
Loading. Please wait.

Precious Time bass

version 1
version 1

Whole song

Interactive

1,524 views 1 this week
no commentswrite comment
1 2 3 4 5
2 more votes to show rating
add to favorites
×
Save as Personal and add changes to this tab that will be seen only by you. Learn more ›
×
You can save this tab as Personal to edit and correct it or add notes. All changes will be seen only by you. Learn more »
launch autoscroll
font size
0
reset
guitar tuner
edit
Autoscroll
slow
fast
+/-
esc
set tempo
stop
Author
Difficulty
-------------------------------------------------------------------------------
			     Precious Time - The Maccabees
-------------------------------------------------------------------------------

This song is amazing and really, really easy!! :D  enjoy!!

Tabbed By : Robsuj

Intro:Comes in on 00:03
      G|12 x32------|
      D|------------|
      A|------------|
      E|------------|
                              
Verse: Come in on 00:09
       G|12x12-11x4-9x12-7x4|
       D|-------------------| x4
       A|-------------------|
       E|-------------------|

Bridge1:Come in on 00:31
        G|7777777777777777----------------|
        D|----------------7777777777777777|
        A|--------------------------------|
        E|--------------------------------|

Verse 00:37

Bridge1 00:59

Bridge2: Come in 1:05
         G|-------------|
         D|10x16-12x16--|
         A|-------------|
         E|-------------|

         G|------------------------5555555555555555|
         D|101010101010101099977755----------------| x3
         A|----------------------------------------|
         E|----------------------------------------|

Chorus: Come in on 1:28
        G|12~------12~-------|
        D|----10~-------10x32|
        A|-------------------|
        E|-------------------|

Verse 1:32

Bridge1 2:15

Bridge2 2:21

Chorus2: Come in on 2:44
        G|12~------12~-------14x16-----|
        D|----10~-------10~-------10x32|
        A|-----------------------------|
        E|-----------------------------|

Verse 3:16 (but x2 NOT x4)

Bridge3: Come in on  3:27
         G|------------------------5555555555555555|
         D|101010101010101099977755----------------| x2
         A|----------------------------------------|
         E|----------------------------------------|

Verse 3:39

Outro: Come in on 3:51
       G|7~-----7~------7~--------|
       D|---7~------7~------7~--5~|
       A|-------------------------|
       E|-------------------------|

Please Comment!

| /  slide up
| \  slide down
| h  hammer-on
| p  pull-off
| ~  vibrato
| +  harmonic
| x  Mute note
===============================================================================

            
            
Suggest correction
Creating personal tab
Creating personal tab
You can edit any tab online and save it as your Personal.

You can edit, replace or remove any tab part or add personal notes – all changes will be seen only by you.

Personal tabs can be accessed anytime from any device, even offline.
Learn more »
Give kudos to tab author, rate the tab!
1 2 3 4 5
comments
print report bad tab
guest
You may want to rate the tab now too:
select rating
Wanna post a correction for this tab? Suggest correction