Oops, an error
Loading. Please wait.

Slow Sun Tab

4 views 1 this week
no commentswrite comment
1 2 3 4 5
3 more votes to show rating
add to favorites
launch autoscroll
font size
0
reset
how to read this tab
guitar tuner
Autoscroll
slow
fast
+/-
esc
set tempo
stop
Help us to improve Ultimate-Guitar.com Take our survey!
×
Author
Difficulty
novice
About this tab version
https://www.youtube.com/watch?v=n2G7-5mmLJc I tabbed the intro watching this live session, but it's not different from the album version. It'd be nice if someone could tab the rest of the song:). Was this info helpful? Yes No
[Intro]Felix White

e|---------------------------------------|--------------------------------------------|
B|---------------------------------------|--------------------------------------------|
G|---------7--9-9--10-9-7----------------|---------7--9-9---10-9-7--------------------|
D|--7--10------------------10--7--10--7--|--7--10-------------------10--7--10--7-5-3--|
A|---------------------------------------|--------------------------------------------|
E|---------------------------------------|--------------------------------------------|

e|---------------------------------------|---------------------|----------------------|
B|---------------------------------------|---------------------|----------------------|
G|---------7--9-9--10-9-7----------------|---------------------|----------------------|
D|--7--10------------------10--7--10--12-|--14-14--7-----------|--14-14--7--5/3--5/7--|
A|---------------------------------------|---------------------|----------------------|
E|---------------------------------------|---------------------|----------------------|

e|-------------------|-------------------|
B|-------------------|-------------------|
G|-------------------|-------------------|
D|--14-14--7---------|--14-14--7---------|
A|-------------------|-------------------|
E|-------------------|-------------------|

| /   Slide up
| \   Slide down
************************************
Suggest correction
Give kudos to tab author, rate the tab!
1 2 3 4 5
comments
print report bad tab
guest
You may want to rate the tab now too:
select rating
Wanna post a correction for this tab? Suggest correction