Oops, an error
Loading. Please wait.

Toothpaste Kisses solo tab

version 1
version 1

Solo

Whole song

33,084 views 15 this week
6 commentsread comments
1 2 3 4 5
x 11
add to favorites
×
Save as Personal and add changes to this tab that will be seen only by you. Learn more ›
×
You can save this tab as Personal to edit and correct it or add notes. All changes will be seen only by you. Learn more »
launch autoscroll
font size
0
reset
how to read this tab
guitar tuner
edit
Autoscroll
slow
fast
+/-
esc
set tempo
stop
Author
-------------------------------------------------------------------------------
                        Toothpaste Kisses - Maccabees
-------------------------------------------------------------------------------
Tabbed by: Ben Hough    
Email: ben_hough@hotmail.co.uk

Tuning: standard

This was bascally because i was learning the song and ths solo is quite important in it,
this is the lead on from the whole song that somebody else tabbed (which was really accurate)
so here it is

e|----16---16-14-16-9----16-14-16--5---16-14-16--10--9-10-9-7-7-7-7-7-7-7----|
B|-14------------------------------------------------------------------------|
G|---------------------------------------------------------------------------|
D|---------------------------------------------------------------------------|
A|---------------------------------------------------------------------------|
E|---------------------------------------------------------------------------|

e|----------------------------------------|
B|----------------------------------------|
G|------9h11------4h6-------9h11------4h6-| x3 i think
D|-9h11-------4h6------9h11-------4h6-----|      doing it from memory now :D
A|----------------------------------------|
E|----------------------------------------|


| /  slide up
| \  slide down
| h  hammer-on
| p  pull-off
| ~  vibrato
| +  harmonic
| x  Mute note
===============================================================================

            
            
Suggest correction
Creating personal tab
Creating personal tab
You can edit any tab online and save it as your Personal.

You can edit, replace or remove any tab part or add personal notes – all changes will be seen only by you.

Personal tabs can be accessed anytime from any device, even offline.
Learn more »
comments
print report bad tab
6 comments total. Showing first comments.
0 reply
freddyfabrics 10 Jan 08, 2008 11:30 AM

perfect tab well done

+1 reply
louis-91 10 Feb 17, 2008 02:07 AM

is it not...

e|----------------------------------------|
B|----------------------------------------|
G|------9h11------7h9-------9h11------7h9-| x3
D|-9h11-------7h9------9h11-------7h9-----|
A|----------------------------------------|
E|----------------------------------------|

possibly?? =D

0 reply
beno93 277 Feb 26, 2008 01:00 PM

no its not that
but the tab sounds a bit dodgey
maybe it only sounds right if the chords are behind it
play it to the record

guest
You may want to rate the tab now too:
select rating
Wanna post a correction for this tab? Suggest correction