Oops, an error
Loading. Please wait.

William Powers tab

2,980 views 3 this week
no commentswrite comment
1 2 3 4 5
x 4
add to favorites
×
Save as Personal and add changes to this tab that will be seen only by you. Learn more ›
×
You can save this tab as Personal to edit and correct it or add notes. All changes will be seen only by you. Learn more »
launch autoscroll
font size
0
reset
how to read this tab
guitar tuner
edit
Autoscroll
slow
fast
+/-
esc
set tempo
stop
Author
-------------------------------------------------------------------------------
                             William Powers - The Maccabees
-------------------------------------------------------------------------------
Tabbed by: James Gonsalves
Email: Helpme_5@hotmail.co.uk

Tuning: Standard

FELIX -

e|1616161616161616191919191919191916161616161616162121212121212121-----------|
B|1616161616161616161616161616161616161616161616161616161616161616-----------|
G|---------------------------------------------------------------------------|
D|---------------------------------------------------------------------------|
A|---------------------------------------------------------------------------|
E|---------------------------------------------------------------------------|

e|1616161616161616191919191919191916161616161616162121212121212121-----------|
B|1616161616161616161616161616161616161616161616161616161616161616-----------|
G|---------------------------------------------------------------------------|
D|---------------------------------------------------------------------------|
A|---------------------------------------------------------------------------|
E|---------------------------------------------------------------------------|

"There's love, there's lust, there are things i must and things i must not do to...."

"Break...."
e|---------------------------------------------------------------------------|
B|---------------------------------------------------------------------------|
G|1313131313131313131313131313131313131313131313131313131313131313-----------|
D|---------------------------------------------------------------------------|
A|1111111111111111111111111111111111111111111111111111111111111111-----------|(11)
E|---------------------------------------------------------------------------|

e|---------------------------------------------------------------------------|
B|---------------------------------------------------------------------------|
G|1313131313131313131313131313131313131313131313131313131313131313-----------|
D|---------------------------------------------------------------------------|
A|1111111111111111111111111111111111111111111111111111111111111111-----------|
E|---------------------------------------------------------------------------|

"There are storms, i must break, there are things i must and things i must not do, to..."
e|---------------------------------------------------------------------------|
B|---------------------------------------------------------------------------|
G|---------------------------------------------------------------------------|
D|------------------------------11/13----------------------------------------|
A|---------------------------------------------------------------------------|
E|---------------------------------------------------------------------------|

"Break...."
e|---------------------------------------------------------------------------|
B|---------------------------------------------------------------------------|
G|1313131313131313131313131313131313131313131313131313131313131313-----------|
D|---------------------------------------------------------------------------|
A|1111111111111111111111111111111111111111111111111111111111111111-----------|(11)
E|---------------------------------------------------------------------------|

e|---------------------------------------------------------------------------|
B|---------------------------------------------------------------------------|
G|1313131313131313131313131313131313131313131313131313131313131313-----------|
D|---------------------------------------------------------------------------|
A|1111111111111111111111111111111111111111111111111111111111111111-----------|
E|---------------------------------------------------------------------------|

Felix plays nothing for "and i'll see you when you're older, when you're older", apart 
12 on the high e string at the start of the bar.

                          "Strong arms......"
e|----------------1616161616161616-------------------------------------------|
B|1717171717171717171717171717171717171717171717171616161616161616-----------|
G|1616161616161616161616161616161616161616161616161616161616161616-----------|
D|---------------------------------------------------------------------------|
A|---------------------------------------------------------------------------|
E|---------------------------------------------------------------------------|

e|----------------1616161616161616-------------------------------------------|
B|1717171717171717171717171717171717171717171717171616161616161616-----------|
G|1616161616161616161616161616161616161616161616161616161616161616-----------|
D|---------------------------------------------------------------------------|
A|---------------------------------------------------------------------------|
E|---------------------------------------------------------------------------|

e|----------------1616161616161616-------------------------------------------|
B|1717171717171717171717171717171717171717171717171616161616161616-----------|
G|1616161616161616161616161616161616161616161616161616161616161616-----------|
D|---------------------------------------------------------------------------|
A|---------------------------------------------------------------------------|
E|---------------------------------------------------------------------------|

e|----------------1616161616161616-------------------------------------------|
B|1717171717171717171717171717171717171717171717171616161616161616-----------|
G|1616161616161616161616161616161616161616161616161616161616161616-----------|
D|---------------------------------------------------------------------------|
A|---------------------------------------------------------------------------|
E|---------------------------------------------------------------------------|

"we repent.......Pulling the seem in his four legged jeans for what is at stake, i will not....."

"Break...."
e|---------------------------------------------------------------------------|
B|---------------------------------------------------------------------------|
G|1313131313131313131313131313131313131313131313131313131313131313-----------|
D|---------------------------------------------------------------------------|
A|1111111111111111111111111111111111111111111111111111111111111111-----------|(11)
E|---------------------------------------------------------------------------|

e|---------------------------------------------------------------------------|
B|---------------------------------------------------------------------------|
G|1313131313131313131313131313131313131313131313131313131313131313-----------|
D|---------------------------------------------------------------------------|
A|1111111111111111111111111111111111111111111111111111111111111111-----------|
E|---------------------------------------------------------------------------|

Again Felix plays nothing for "and i'll see you when you're older, when you're older" 
from that 12 on the high e string.

"And in faith i left you to it......."(Strum this very lightly)
e|-----16------------------16------------------16-------------16-------------|
B|17---17---17---16---17---17---17---16---17---17---17---16---17-------------|
G|16---16---16---16---16---16---16---16---16---16---16---16---16-------------|
D|---------------------------------------------------------------------------|
A|---------------------------------------------------------------------------|
E|---------------------------------------------------------------------------|

"Two strong arms that held you through it......"
e|-----16------------------16------------------16-------------16-------------|
B|17---17---17---16---17---17---17---16---17---17---17---16---17-------------|
G|16---16---16---16---16---16---16---16---16---16---16---16---16-------------|
D|---------------------------------------------------------------------------|
A|---------------------------------------------------------------------------|
E|---------------------------------------------------------------------------|

Felix plays nothing til after...."Now, now, now, now, now we know, that's enough, that's 
for now". Listen to the strumming pattern and you can easily follow it, it's three 
every beat.

e|----------------1616161616161616-------------------------------------------|
B|1717171717171717171717171717171717171717171717171616161616161616-----------|
G|1616161616161616161616161616161616161616161616161616161616161616-----------|
D|---------------------------------------------------------------------------|
A|---------------------------------------------------------------------------|
E|---------------------------------------------------------------------------|

e|----------------1616161616161616-------------------------------------------|
B|1717171717171717171717171717171717171717171717171616161616161616-----------|
G|1616161616161616161616161616161616161616161616161616161616161616-----------|
D|---------------------------------------------------------------------------|
A|---------------------------------------------------------------------------|
E|---------------------------------------------------------------------------|

e|---------------------------------------------------------------------------|
B|---------------------------------------------------------------------------|
G|161616161616161616161616161616161616161616161616161616161616161616161616---|
D|---------------------------------------------------------------------------|
A|---------------------------------------------------------------------------|
E|---------------------------------------------------------------------------|

e|---------------------------------------------------------------------------|
B|---------------------------------------------------------------------------|
G|14h1614\1313h14\1111h13p11-------------------------------------------------|
D|---------------------------------------------------------------------------|
A|---------------------------------------------------------------------------|
E|---------------------------------------------------------------------------|

e|----------------1616161616161616-------------------------------------------|
B|1717171717171717171717171717171717171717171717171616161616161616-----------|
G|1616161616161616161616161616161616161616161616161616161616161616-----------|
D|---------------------------------------------------------------------------|
A|---------------------------------------------------------------------------|
E|---------------------------------------------------------------------------|

e|----------------1616161616161616-------------------------------------------|
B|1717171717171717171717171717171717171717171717171616161616161616-----------|
G|1616161616161616161616161616161616161616161616161616161616161616-----------|
D|---------------------------------------------------------------------------|
A|---------------------------------------------------------------------------|
E|---------------------------------------------------------------------------|

e|---------------------------------------------------------------------------|
B|---------------------------------------------------------------------------|
G|161616161616161616161616161616161616161616161616161616161616161616161616---|
D|---------------------------------------------------------------------------|
A|---------------------------------------------------------------------------|
E|---------------------------------------------------------------------------|

e|---------------------------------------------------------------------------|
B|---------------------------------------------------------------------------|
G|14h1614\1313h14\1111h13p11-------------------------------------------------|
D|---------------------------------------------------------------------------|
A|---------------------------------------------------------------------------|
E|---------------------------------------------------------------------------|

HUGO -

e|---------------------------------------------------------------------------|
B|---------------------------------------------------------------------------|
G|1313131313131313131313131313131313131313131313131111111111111111/6---------|
D|------------------------------------------------9999999999999999/----------|
A|1111111111111111111111111111111111111111111111111111111111111111/4---------|
E|---------------------------------------------------------------------------|

"There's love, there's lust...."

"To Break..."
e|---------------------------------------------------------------------------|
B|12--------14---12--------14---12--------14---12--------14------------------|
G|-----13-------------13-------------13-------------13--------6--------------|
D|---------------------------------------------------------------------------|
A|------------------------------------------------------------4--------------|
E|---------------------------------------------------------------------------|

"There are storms......"

"To Break..."
e|-----------------------------------------------12----------------------------|
B|12--------14---12--------14---12--------14---12---12---------14--------------|
G|-----13-------------13-------------13---------------141313-13----------------|
D|-----------------------------------------------------------------------------|
A|-----------------------------------------------------------------------------|
E|-----------------------------------------------------------------------------|

"And i'll see you when you're older....."
e|---------------------------------------------------------------------------|
B|---------------------------------------------------------------------------|
G|---------------------------------------------------------------------------|
D|6-6-6-6-6-6-9-9-6-6-6-6-6-6-6-6-11-11-11-11-11-11-11-11-9--9--9--9--9--9---|
A|7-7-7-7-7-7-7-7-7-7-7-7-7-7-7-7-12-12-12-12-12-12-12-12-11-11-11-11-11-11--|
E|0-0-0-0-0-0-0-0-0-0-0-0-0-0-0-0-0--0--0--0--0--0--0--0--0--0--0--0--0--0---|

e|-------------------------------------------------------------------------------|
B|-------------------------------------------------------------------------------|
G|-------------------------------------------------------------------------------|
D|9--9---------------------------------------------------------------------------|
A|11-11--------------------------------------------------------------------------|
E|0--0---------------------------------------------------------------------------|

"And i'll see you when you're older....."
e|---------------------------------------------------------------------------|
B|---------------------------------------------------------------------------|
G|---------------------------------------------------------------------------|
D|6-6-6-6-6-6-9-9-6-6-6-6-6-6-6-6-11-11-11-11-11-11-11-11-9--9--9--9--9--9---|
A|7-7-7-7-7-7-7-7-7-7-7-7-7-7-7-7-12-12-12-12-12-12-12-12-11-11-11-11-11-11--|
E|0-0-0-0-0-0-0-0-0-0-0-0-0-0-0-0-0--0--0--0--0--0--0--0--0--0--0--0--0--0---|

e|-------------------------------------------------------------------------------|
B|-------------------------------------------------------------------------------|
G|-------------------------------------------------------------------------------|
D|9--9---------------------------------------------------------------------------|
A|11-11--------------------------------------------------------------------------|
E|0--0---------------------------------------------------------------------------|

e|---------------------------------------------------------------------------|
B|---------------------------------------------------------------------------|
G|1313131313131313131313131313131313131313131313131313131313131313-----------|
D|------------------------------------------------9999999999999999-----------|
A|1111111111111111111111111111111111111111111111111111111111111111-----------|
E|---------------------------------------------------------------------------|

e|---------------------------------------------------------------------------|
B|---------------------------------------------------------------------------|
G|1313131313131313131313131313131313131313131313131313131313131313/6---------|
D|------------------------------------------------9999999999999999/----------|
A|1111111111111111111111111111111111111111111111111111111111111111/4---------|
E|---------------------------------------------------------------------------|


"We repent......"          "Pulling the seems in his four legged jeans...."
e|---------------------------------------------------------------------------|
B|---------------------------------------------------------------------------|
G|--------------------8\6----------------------------------------------------|
D|---------------------------------------------------------------------------|
A|--------------------6\4----------------------------------------------------|
E|---------------------------------------------------------------------------|

"To Break..."
e|-----------------------------------------------12----------------------------|
B|12--------14---12--------14---12--------14---12---12---------14--------------|
G|-----13-------------13-------------13---------------141313-13----------------|
D|-----------------------------------------------------------------------------|
A|-----------------------------------------------------------------------------|
E|-----------------------------------------------------------------------------|

"And i'll see you when you're older....."
e|---------------------------------------------------------------------------|
B|---------------------------------------------------------------------------|
G|---------------------------------------------------------------------------|
D|6-6-6-6-6-6-9-9-6-6-6-6-6-6-6-6-11-11-11-11-11-11-11-11-9--9--9--9--9--9---|
A|7-7-7-7-7-7-7-7-7-7-7-7-7-7-7-7-12-12-12-12-12-12-12-12-11-11-11-11-11-11--|
E|0-0-0-0-0-0-0-0-0-0-0-0-0-0-0-0-0--0--0--0--0--0--0--0--0--0--0--0--0--0---|

e|-------------------------------------------------------------------------------|
B|-------------------------------------------------------------------------------|
G|-------------------------------------------------------------------------------|
D|9--9---------------------------------------------------------------------------|
A|11-11--------------------------------------------------------------------------|
E|0--0---------------------------------------------------------------------------|

"And i'll see you when you're older....."
e|---------------------------------------------------------------------------|
B|---------------------------------------------------------------------------|
G|---------------------------------------------------------------------------|
D|6-6-6-6-6-6-9-9-6-6-6-6-6-6-6-6-11-11-11-11-11-11-11-11-9--9--9--9--9--9---|
A|7-7-7-7-7-7-7-7-7-7-7-7-7-7-7-7-12-12-12-12-12-12-12-12-11-11-11-11-11-11--|
E|0-0-0-0-0-0-0-0-0-0-0-0-0-0-0-0-0--0--0--0--0--0--0--0--0--0--0--0--0--0---|

e|-------------------------------------------------------------------------------|
B|-------------------------------------------------------------------------------|
G|-------------------------------------------------------------------------------|
D|9--9---------------------------------------------------------------------------|
A|11-11--------------------------------------------------------------------------|
E|0--0---------------------------------------------------------------------------|

Hugo plays nothing until after "Left you in strong arms....."

"Two strong arms that held you threw it....."
e|---------------------------------------------------------------------------|
B|---------------------------------------------------------------------------|
G|---------------------------------------------------------------------------|
D|6-6-6-6-6-6-6-6-6-6-6-6-6-6-6-6-6-6-6-6-6-6-6-6-6-6-6-6-6-6-6-6-6-6-6-6-6--|
A|7-7-7-7-7-7-7-7-7-7-7-7-7-7-7-7-6-6-6-7-7-7-7-7-7-7-7-7-7-7-7-7-7-7-7-6-6--|
E|0-0-0-0-0-0-0-0-0-0-0-0-0-0-0-0-0-0-0-0-0-0-0-0-0-0-0-0-0-0-0-0-0-0-0-0-0--|

e|---------------------------------------------------------------------------|
B|---------------------------------------------------------------------------|
G|---------------------------------------------------------------------------|
D|2-2-2-2-2-2-2-2-2-2-2-2-2-2-2-2-1-1-1-1-1-1-1-1-1-1-1-1-1-1-1-1------------|
A|4-4-4-4-4-4-4-4-4-4-4-4-4-4-4-4-2-2-2-2-2-2-2-2-2-2-2-2-2-2-2-2------------|
E|0-0-0-0-0-0-0-0-0-0-0-0-0-0-0-0-0-0-0-0-0-0-0-0-0-0-0-0-0-0-0-0------------|

e|---------------------------------------------------------------------------|
B|---------------------------------------------------------------------------|
G|---------------------------------------------------------------------------|
D|----9--6------9--6---------------------------------------------------------|
A|7---------7----------------------------------------------------------------|
E|---------------------------------------------------------------------------|

Again listen to the strumming pattern, it's three strums every beat.

e|121212121212121212121212121212121212121212121212121212121212111111111111---|
B|121212121212121212121212121212121212121212121212121212121212121212121212---|
G|131313131313131313131313131313131313131313131313131313131313131313131313---|
D|141414141414141414141414141414141414141414141414141414141414131313131313---|
A|141414141414141414141414141414141414141414141414141414141414111111111111---|
E|121212121212121212121212121212121212121212121212121212121212---------------|

e|121212121212121212121212121212121212121212121212121212121212111111111111---|
B|121212121212121212121212121212121212121212121212121212121212121212121212---|
G|131313131313131313131313131313131313131313131313131313131313131313131313---|
D|141414141414141414141414141414141414141414141414141414141414131313131313---|
A|141414141414141414141414141414141414141414141414141414141414111111111111---|
E|121212121212121212121212121212121212121212121212121212121212---------------|

"Now, now, now, now, now there's something in it....."
e|121212121212121212121212121212121212121212121212121212121212111111111111---|
B|121212121212121212121212121212121212121212121212121212121212121212121212---|
G|131313131313131313131313131313131313131313131313131313131313131313131313---|
D|141414141414141414141414141414141414141414141414141414141414131313131313---|
A|141414141414141414141414141414141414141414141414141414141414111111111111---|
E|121212121212121212121212121212121212121212121212121212121212---------------|

e|121212121212121212121212121212121212121212121212121212121212111111111111---|
B|121212121212121212121212121212121212121212121212121212121212121212121212---|
G|131313131313131313131313131313131313131313131313131313131313131313131313---|
D|141414141414141414141414141414141414141414141414141414141414131313131313---|
A|141414141414141414141414141414141414141414141414141414141414111111111111---|
E|121212121212121212121212121212121212121212121212121212121212---------------|

e|161616161616161616161616161616161616161616161616x-x-x-x-x-x-x-x-x-x-x-x----|
B|171717171717171717171717171717171717171717171717161616161616161616161616---|
G|181818181818181818181818181818181818181818181818161616161616161616161616---|
D|181818181818181818181818181818181818181818181818161616161616161616161616---|
A|161616161616161616161616161616161616161616161616141414141414141414141414---|
E|---------------------------------------------------------------------------|

e|121212121212121212121212121212121212121212121212121212121212111111111111---|
B|121212121212121212121212121212121212121212121212121212121212121212121212---|
G|131313131313131313131313131313131313131313131313131313131313131313131313---|
D|141414141414141414141414141414141414141414141414141414141414131313131313---|
A|141414141414141414141414141414141414141414141414141414141414111111111111---|
E|121212121212121212121212121212121212121212121212121212121212---------------|

e|121212121212121212121212121212121212121212121212121212121212111111111111---|
B|121212121212121212121212121212121212121212121212121212121212121212121212---|
G|131313131313131313131313131313131313131313131313131313131313131313131313---|
D|141414141414141414141414141414141414141414141414141414141414131313131313---|
A|141414141414141414141414141414141414141414141414141414141414111111111111---|
E|121212121212121212121212121212121212121212121212121212121212---------------|

e|161616161616161616161616161616161616161616161616x-x-x-x-x-x-x-x-x-x-x-x----|
B|171717171717171717171717171717171717171717171717161616161616161616161616---|
G|181818181818181818181818181818181818181818181818161616161616161616161616---|
D|181818181818181818181818181818181818181818181818161616161616161616161616---|
A|161616161616161616161616161616161616161616161616141414141414141414141414---|
E|---------------------------------------------------------------------------|

e|121212121212121212121212121212121212121212121212121212121212111111111111---|
B|121212121212121212121212121212121212121212121212121212121212121212121212---|
G|131313131313131313131313131313131313131313131313131313131313131313131313---|
D|141414141414141414141414141414141414141414141414141414141414131313131313---|
A|141414141414141414141414141414141414141414141414141414141414111111111111---|
E|121212121212121212121212121212121212121212121212121212121212---------------|

e|121212121212121212121212121212121212121212121212121212121212111111111111---|
B|121212121212121212121212121212121212121212121212121212121212121212121212---|
G|131313131313131313131313131313131313131313131313131313131313131313131313---|
D|141414141414141414141414141414141414141414141414141414141414131313131313---|
A|141414141414141414141414141414141414141414141414141414141414111111111111---|
E|121212121212121212121212121212121212121212121212121212121212---------------|

e|161616161616161616161616161616161616161616161616x-x-x-x-x-x-x-x-x-x--------|
B|17171717171717171717171717171717171717171717171716161616161616161616-------|
G|18181818181818181818181818181818181818181818181816161616161616161616-------|
D|18181818181818181818181818181818181818181818181816161616161616161616-------|
A|16161616161616161616161616161616161616161616161614141414141414141414-------|
E|---------------------------------------------------------------------------|

e|121212121212121212121212121212121212121212121212121212121212111111111111---|
B|121212121212121212121212121212121212121212121212121212121212121212121212---|
G|131313131313131313131313131313131313131313131313131313131313131313131313---|
D|141414141414141414141414141414141414141414141414141414141414131313131313---|
A|141414141414141414141414141414141414141414141414141414141414111111111111---|
E|121212121212121212121212121212121212121212121212121212121212---------------|

e|121212121212121212121212121212121212121212121212121212121212111111111111---|
B|121212121212121212121212121212121212121212121212121212121212121212121212---|
G|131313131313131313131313131313131313131313131313131313131313131313131313---|
D|141414141414141414141414141414141414141414141414141414141414131313131313---|
A|141414141414141414141414141414141414141414141414141414141414111111111111---|
E|121212121212121212121212121212121212121212121212121212121212---------------|

e|161616161616161616161616161616161616161616161616x-x-x-x-x-x-x-x-x-x--------|
B|17171717171717171717171717171717171717171717171716161616161616161616-------|
G|18181818181818181818181818181818181818181818181816161616161616161616-------|
D|18181818181818181818181818181818181818181818181816161616161616161616-------|
A|16161616161616161616161616161616161616161616161614141414141414141414-------|
E|---------------------------------------------------------------------------|

ORLANDO -

Orlando plays nothing until the ending where he plays almost exactly what Hugo plays.

e|121212121212121212121212121212121212121212121212121212121212121212121212---|
B|121212121212121212121212121212121212121212121212121212121212121212121212---|
G|131313131313131313131313131313131313131313131313131313131313131313131313---|
D|141414141414141414141414141414141414141414141414141414141414141414141414---|
A|141414141414141414141414141414141414141414141414141414141414141414141414---|
E|121212121212121212121212121212121212121212121212121212121212121212121212---|

e|121212121212121212121212121212121212121212121212121212121212121212121212---|
B|121212121212121212121212121212121212121212121212121212121212121212121212---|
G|131313131313131313131313131313131313131313131313131313131313131313131313---|
D|141414141414141414141414141414141414141414141414141414141414141414141414---|
A|141414141414141414141414141414141414141414141414141414141414141414141414---|
E|121212121212121212121212121212121212121212121212121212121212121212121212---|

"Now, now, now, now, now, There's something in it...."
e|121212121212121212121212121212121212121212121212121212121212121212121212---|
B|121212121212121212121212121212121212121212121212121212121212121212121212---|
G|131313131313131313131313131313131313131313131313131313131313131313131313---|
D|141414141414141414141414141414141414141414141414141414141414141414141414---|
A|141414141414141414141414141414141414141414141414141414141414141414141414---|
E|121212121212121212121212121212121212121212121212121212121212121212121212---|

e|121212121212121212121212121212121212121212121212121212121212121212121212---|
B|121212121212121212121212121212121212121212121212121212121212121212121212---|
G|131313131313131313131313131313131313131313131313131313131313131313131313---|
D|141414141414141414141414141414141414141414141414141414141414141414141414---|
A|141414141414141414141414141414141414141414141414141414141414141414141414---|
E|121212121212121212121212121212121212121212121212121212121212121212121212---|

e|161616161616161616161616161616161616161616161616x-x-x-x-x-x-x-x-x-x--------|
B|17171717171717171717171717171717171717171717171716161616161616161616-------|
G|18181818181818181818181818181818181818181818181816161616161616161616-------|
D|18181818181818181818181818181818181818181818181816161616161616161616-------|
A|16161616161616161616161616161616161616161616161614141414141414141414-------|
E|---------------------------------------------------------------------------|

e|121212121212121212121212121212121212121212121212121212121212121212121212---|
B|121212121212121212121212121212121212121212121212121212121212121212121212---|
G|131313131313131313131313131313131313131313131313131313131313131313131313---|
D|141414141414141414141414141414141414141414141414141414141414141414141414---|
A|141414141414141414141414141414141414141414141414141414141414141414141414---|
E|121212121212121212121212121212121212121212121212121212121212121212121212---|

e|121212121212121212121212121212121212121212121212121212121212121212121212---|
B|121212121212121212121212121212121212121212121212121212121212121212121212---|
G|131313131313131313131313131313131313131313131313131313131313131313131313---|
D|141414141414141414141414141414141414141414141414141414141414141414141414---|
A|141414141414141414141414141414141414141414141414141414141414141414141414---|
E|121212121212121212121212121212121212121212121212121212121212121212121212---|

e|161616161616161616161616161616161616161616161616x-x-x-x-x-x-x-x-x-x--------|
B|17171717171717171717171717171717171717171717171716161616161616161616-------|
G|18181818181818181818181818181818181818181818181816161616161616161616-------|
D|18181818181818181818181818181818181818181818181816161616161616161616-------|
A|16161616161616161616161616161616161616161616161614141414141414141414-------|
E|---------------------------------------------------------------------------|

e|121212121212121212121212121212121212121212121212121212121212121212121212---|
B|121212121212121212121212121212121212121212121212121212121212121212121212---|
G|131313131313131313131313131313131313131313131313131313131313131313131313---|
D|141414141414141414141414141414141414141414141414141414141414141414141414---|
A|141414141414141414141414141414141414141414141414141414141414141414141414---|
E|121212121212121212121212121212121212121212121212121212121212121212121212---|

e|121212121212121212121212121212121212121212121212121212121212121212121212---|
B|121212121212121212121212121212121212121212121212121212121212121212121212---|
G|131313131313131313131313131313131313131313131313131313131313131313131313---|
D|141414141414141414141414141414141414141414141414141414141414141414141414---|
A|141414141414141414141414141414141414141414141414141414141414141414141414---|
E|121212121212121212121212121212121212121212121212121212121212121212121212---|

e|161616161616161616161616161616161616161616161616x-x-x-x-x-x-x-x-x-x--------|
B|17171717171717171717171717171717171717171717171716161616161616161616-------|
G|18181818181818181818181818181818181818181818181816161616161616161616-------|
D|18181818181818181818181818181818181818181818181816161616161616161616-------|
A|16161616161616161616161616161616161616161616161614141414141414141414-------|
E|---------------------------------------------------------------------------|

e|121212121212121212121212121212121212121212121212121212121212121212121212---|
B|121212121212121212121212121212121212121212121212121212121212121212121212---|
G|131313131313131313131313131313131313131313131313131313131313131313131313---|
D|141414141414141414141414141414141414141414141414141414141414141414141414---|
A|141414141414141414141414141414141414141414141414141414141414141414141414---|
E|121212121212121212121212121212121212121212121212121212121212121212121212---|

e|121212121212121212121212121212121212121212121212121212121212121212121212---|
B|121212121212121212121212121212121212121212121212121212121212121212121212---|
G|131313131313131313131313131313131313131313131313131313131313131313131313---|
D|141414141414141414141414141414141414141414141414141414141414141414141414---|
A|141414141414141414141414141414141414141414141414141414141414141414141414---|
E|121212121212121212121212121212121212121212121212121212121212121212121212---|

e|161616161616161616161616161616161616161616161616x-x-x-x-x-x-x-x-x-x--------|
B|17171717171717171717171717171717171717171717171716161616161616161616-------|
G|18181818181818181818181818181818181818181818181816161616161616161616-------|
D|18181818181818181818181818181818181818181818181816161616161616161616-------|
A|16161616161616161616161616161616161616161616161614141414141414141414-------|
E|---------------------------------------------------------------------------|

END

************************************

| /   slide up
| \   slide down
| h   hammer-on
| p   pull-off
| ~   vibrato
| +   harmonic
| x   Mute note
| b   Bend
| pb  Pre-bend
| br  Bend release
| pbr Pre-bend release
| brb Bend release bend

************************************

            
            
Suggest correction
Creating personal tab
Creating personal tab
You can edit any tab online and save it as your Personal.

You can edit, replace or remove any tab part or add personal notes – all changes will be seen only by you.

Personal tabs can be accessed anytime from any device, even offline.
Learn more »
comments
print report bad tab
guest
You may want to rate the tab now too:
select rating
Wanna post a correction for this tab? Suggest correction