Oops, an error
Loading. Please wait.

Forever Lost tab

version 2
version 2

Whole song

3,841 views 3 this week
2 commentsread comments
1 2 3 4 5
x 4
add to favorites
×
Save as Personal and add changes to this tab that will be seen only by you. Learn more ›
×
You can save this tab as Personal to edit and correct it or add notes. All changes will be seen only by you. Learn more »
launch autoscroll
font size
0
reset
how to read this tab
guitar tuner
edit
Autoscroll
slow
fast
+/-
esc
set tempo
stop
Difficulty
intermediate
Forever Lost

Artist: The Magic Numbers
Title: Forever Lost
Album: The Magic Numbers
Tabbed By: Uriel  M.M   (mexico city)
[][][][][][][][][][][][][][][][][][][][][][][][][][][][][][][][][][[][]

Intro.
                                  x4
E||--0----0-----0-----0-------0------|
B||--0----0-----0-----0-------0------|
G||--9----9-----9-----9-------9------|
D||--9--9-9-9-9-9-9-9-9-9-9-9-9-9-9--|
A||--7--7-7-7-7-7-7-7-7-7-7-7-7-7-7--|
E||----------------------------------|

Verse.                                                                           
                                          wrong...
E||--0-------------0-0--4---------4-4-4-0--0--------0-0--4--4------4-4--|
B||--0-------------0-0--4---------4-4-4-0--0--------0-0--4--4------4-4--|
G||--9-------------9-9--4---------4-4-4-9--9--------9-9--4--4------4-4--|
D||--9-------------9-9--6---------6-6-6-9--9--------9-9--6--6------6-6--|
A||--7-------------7-7------------------7--7--------7-7-----------------|
E||---------------------------------------------------------------------|

E||--0-----0-----0-----0-------0-0-0-|-4-----4-----4-----4-------4-4-4--|
B||--0-----0-----0-----0-------0-0-0-|-4-----4-----4-----4-------4-4-4--|
G||--9-----9-----9-----9-------9-9-9-|-4-4-4-4-4-4-4-4-4-4-4-4-4-4-4-4--|
D||--9-9-9-9-9-9-9-9-9-9-9-9-9-9-9-9-|-6-6-6-6-6-6-6-6-6-6-6-6-6-6-6-6--|
A||--7-7-7-7-7-7-7-7-7-7-7-7-7-7-7-7-|----------------------------------|
E||----------------------------------|----------------------------------|

E||--4-----4-----4-----4-------4-4-4-|-4-----4-----4--------------------|
B||--5-----5-----5-----5-------5-5-5-|-4-----4-----4--4-5-----5---------|
G||--6-6-6-6-6-6-6-6-6-6-6-6-6-6-6-6-|-4-4-4-4-4-4-4-------4------------|
D||--6-6-6-6-6-6-6-6-6-6-6-6-6-6-6-6-|-6-6-6-6-6-6-6--------------------|
A||----------------------------------|----------------------------------|
E||----------------------------------|----------------------------------|

Chorus.
E||--5--x-5--5-5-x-|-2--x-2--2-2-x-|-4--x-4--4-4-4-|-4--4--4-4-4-4---|
B||--5--x-5--5-5-x-|-4--x-4--4-4-x-|-4--x-4--4-4-4-|-5--5--5-5-5-5---|
G||--6--x-6--6-6-x-|-4--x-4--4-4-x-|-4--x-4--4-4-4-|-6--6--6-6-6-6---|
D||--7--x-7--7-7-x-|-4--x-4--4-4-x-|-6--x-6--6-6-6-|-6--6--6-6-6-6---|
A||--7--x-7--7-7-x-|-2--x-2--2-2-x-|-6--x-6--6-6-6-|-4--4--4-4-4-4---|
E||--5--x-5--5-5-x-|-2--x-2--2-2-x-|-4--x-4--4-4-4-|-----------------|

E||--5--x-5--5-5-x-|-2--x-2--2-2-x-|-4--x-4--4-4-4-|-----------------|
B||--5--x-5--5-5-x-|-4--x-4--4-4-x-|-4--x-4--4-4-4-|-----------------|
G||--6--x-6--6-6-x-|-4--x-4--4-4-x-|-4--x-4--4-4-4-|-9-888-666-444x--|
D||--7--x-7--7-7-x-|-4--x-4--4-4-x-|-6--x-6--6-6-6-|-9-999-666-444x--|
A||--7--x-7--7-7-x-|-2--x-2--2-2-x-|-6--x-6--6-6-6-|-----------------|
E||--5--x-5--5-5-x-|-2--x-2--2-2-x-|-4--x-4--4-4-4-|-----------------|

E||--5--x-5--5-5-x-|-2--x-2--2-2-x-|-4--x-4--4-4-4-|-0---------------|
B||--5--x-5--5-5-x-|-4--x-4--4-4-x-|-4--x-4--4-4-4-|-0---------------|
G||--6--x-6--6-6-x-|-4--x-4--4-4-x-|-4--x-4--4-4-4-|-6---------------|
D||--7--x-7--7-7-x-|-4--x-4--4-4-x-|-6--x-6--6-6-6-|-6---------------|
A||--7--x-7--7-7-x-|-2--x-2--2-2-x-|-6--x-6--6-6-6-|-4---------------|
E||--5--x-5--5-5-x-|-2--x-2--2-2-x-|-4--x-4--4-4-4-|-----------------|

    Cause I'm forever lost
E||--2---------------2----|
B||--2---------------4----|
G||--2---------------4----|
D||--2---------------4----|
A||--0---------------2----|
E||-----------------------|

Verse.                                                                                   
                                           x2
E||--0----0----0----0----0-0-0-|-4----4----4----4----4-4-4--|
B||--0----0----0----0----0-0-0-|-4--4-4--4-4--4-4----4-4-4--|
G||--9--9-9--9-9--9-9----9-9-9-|-4--4-4--4-4--4-4----4-4-4--|
D||--9--9-9--9-9--9-9----9-9-9-|-6--6-6--6-6--6-6----6-6-6--|
A||--7--7-7--7-7--7-7----7-7-7-|----------------------------|
E||---------------------------------------------------------|

E||--0-----0-----0-----0-------0-0-0-|-4-----4-----4-----4-------4-4-4--|
B||--0-----0-----0-----0-------0-0-0-|-4-----4-----4-----4-------4-4-4--|
G||--9-----9-----9-----9-------9-9-9-|-4-4-4-4-4-4-4-4-4-4-4-4-4-4-4-4--|
D||--9-9-9-9-9-9-9-9-9-9-9-9-9-9-9-9-|-6-6-6-6-6-6-6-6-6-6-6-6-6-6-6-6--|
A||--7-7-7-7-7-7-7-7-7-7-7-7-7-7-7-7-|----------------------------------|
E||----------------------------------|----------------------------------|

E||--4-----4-----4-----4-------4-4-4-|-4-----4-----4--------------------|
B||--5-----5-----5-----5-------5-5-5-|-4-----4-----4--4-5-----5---------|
G||--6-6-6-6-6-6-6-6-6-6-6-6-6-6-6-6-|-4-4-4-4-4-4-4-------4------------|
D||--6-6-6-6-6-6-6-6-6-6-6-6-6-6-6-6-|-6-6-6-6-6-6-6--------------------|
A||----------------------------------|----------------------------------|
E||----------------------------------|----------------------------------|

Chorus.
E||--5--x-5--5-5-x-|-2--x-2--2-2-x-|-4--x-4--4-4-4-|-4--4--4-4-4-4---|
B||--5--x-5--5-5-x-|-4--x-4--4-4-x-|-4--x-4--4-4-4-|-5--5--5-5-5-5---|
G||--6--x-6--6-6-x-|-4--x-4--4-4-x-|-4--x-4--4-4-4-|-6--6--6-6-6-6---|
D||--7--x-7--7-7-x-|-4--x-4--4-4-x-|-6--x-6--6-6-6-|-6--6--6-6-6-6---|
A||--7--x-7--7-7-x-|-2--x-2--2-2-x-|-6--x-6--6-6-6-|-4--4--4-4-4-4---|
E||--5--x-5--5-5-x-|-2--x-2--2-2-x-|-4--x-4--4-4-4-|-----------------|

E||--5--x-5--5-5-x-|-2--x-2--2-2-x-|-4--x-4--4-4-4-|-----------------|
B||--5--x-5--5-5-x-|-4--x-4--4-4-x-|-4--x-4--4-4-4-|-----------------|
G||--6--x-6--6-6-x-|-4--x-4--4-4-x-|-4--x-4--4-4-4-|-9-888-666-444x--|
D||--7--x-7--7-7-x-|-4--x-4--4-4-x-|-6--x-6--6-6-6-|-9-999-666-444x--|
A||--7--x-7--7-7-x-|-2--x-2--2-2-x-|-6--x-6--6-6-6-|-----------------|
E||--5--x-5--5-5-x-|-2--x-2--2-2-x-|-4--x-4--4-4-4-|-----------------|

E||--5--x-5--5-5-x-|-2--x-2--2-2-x-|-4--x-4--4-4-4-|-0---------------|
B||--5--x-5--5-5-x-|-4--x-4--4-4-x-|-4--x-4--4-4-4-|-0---------------|
G||--6--x-6--6-6-x-|-4--x-4--4-4-x-|-4--x-4--4-4-4-|-6---------------|
D||--7--x-7--7-7-x-|-4--x-4--4-4-x-|-6--x-6--6-6-6-|-6---------------|
A||--7--x-7--7-7-x-|-2--x-2--2-2-x-|-6--x-6--6-6-6-|-4---------------|
E||--5--x-5--5-5-x-|-2--x-2--2-2-x-|-4--x-4--4-4-4-|-----------------|

    Cause I'm forever lost   Oh yeah, I'm forever lost
E||--2---------------2------------2--------------2----|
B||--2---------------4------------2--------------4----|
G||--2---------------4------------2--------------4----|
D||--2---------------4------------2--------------4----|
A||--0---------------2------------0--------------2----|
E||---------------------------------------------------|

Solo.
E||----0-----------0-----------0---------0---------------0--------------|
B||----------0-----------0---------------------0---------------0--------|
G||--8-----8-----8-----8-----8-----8---8-----8-----8---8-----8-----8-/--|
D||6-----6-----6-----6-----6-----6---6-----6-----6---6-----6-----6---/--|
A||---------------------------------------------------------------------|
E||---------------------------------------------------------------------|

E||-----0------------------0---------------|
B||----------------------------------------|
G||--11-----11-----11---11-----11-----11---|
D||9------9----9-9----9------9----9-9------|
A||----------------------------------------|
E||----------------------------------------|

E||-----0------------------0---------------|
B||----------------------------------------|
G||--11-----11-----11---11-----11-----11\--|
D||9------9----9-9----0------9----9-9---\--|
A||----------------------------------------|
E||----------------------------------------|

E||----0-----------0-----------0---------0---------------0--------------|
B||----------0-----------0---------------------0---------------0--------|
G||--8-----8-----8-----8-----8-----8---8-----8-----8---8-----8-----8-/--|
D||6-----6-----6-----6-----6-----6---6-----6-----6---6-----6-----6---/--|
A||---------------------------------------------------------------------|
E||---------------------------------------------------------------------|

E||-----0------------------0---------------|
B||----------------------------------------|
G||--11-----11-----11---11-----11-----11---|
D||9------9----9-9----9------9----9-9------|
A||----------------------------------------|
E||----------------------------------------|

E||-----0------------------0---------------|
B||----------------------------------------|
G||--11-----11-----11---11-----11-----11/--|
D||9------9----9-9----0------9----9-9------|
A||----------------------------------------|
E||----------------------------------------|

E||-------------------------------------------------|
B||---12----12----12--------12----12----12----12----|
G||13----13----13----13--13----13----13----13-------|
D||-------------------------------------------------|
A||-------------------------------------------------|
E||-------------------------------------------------|

E||11-------11-------11-------11-------11-----------|
B||---12-------12-------12-------12-------12----12--|
G||------13-------13-------13-------13-------13-----|
D||-------------------------------------------------|
A||-------------------------------------------------|
E||-------------------------------------------------|

E||------------------------------------------------------------------|
B||---12-------12-------12-------12-------12---12-12-12-12-12-12-12--|
G||13-------13-------13-------13-------13------13-13-13-13-13-13-13--|
D||------11-------13-------11----------------------------------------|
A||---------------------------------14-------------------------------|
E||------------------------------------------------------------------|

Verse.                                                                                   
               Looks like it all went wrong
E||----------------------000-0-----0-----0-------0-0-0--|
B||121212-101010-999-777-000-0-----0-----0-------0-0-0--|
G||131313-111111-999-888-999-9-----9-----9-------9-9-9--|
D||----------------------999-9-9-9-9-9-9-9-9-9-9-9-9-9--|
A||----------------------777-7-7-7-7-7-7-7-7-7-7-7-7-7--|
E||-----------------------------------------------------|

E||4-----4-----4-----4-------4-4-4-|---------------------7-7-7-7-7-7-7--|
B||4-----4-----4-----4-------4-4-4-|---------------------7-7-7-7-7-7-7--|
G||4-4-4-4-4-4-4-4-4-4-4-4-4-4-4-4-|-8---9---8---6---4---6-6-6-6-6-6-6--|
D||6-6-6-6-6-6-6-6-6-6-6-6-6-6-6-6-|-9---9---9---6---4---9-9-9-9-9-9-9--|
A||--------------------------------|---------------------9-9-9-9-9-9-9--|
E||--------------------------------|---------------------7-7-7-7-7-7-7--|

E||----------------------000-0-----0-----0-------0-0-0--|
B||121212-101010-999-777-000-0-----0-----0-------0-0-0--|
G||131313-111111-999-888-999-9-----9-----9-------9-9-9--|
D||----------------------999-9-9-9-9-9-9-9-9-9-9-9-9-9--|
A||----------------------777-7-7-7-7-7-7-7-7-7-7-7-7-7--|
E||-----------------------------------------------------|

E||4-----4-----4-----4-------4-4-4-|-------------------------5--|
B||4-----4-----4-----4-------4-4-4-|-------------------------5--|
G||4-4-4-4-4-4-4-4-4-4-4-4-4-4-4-4-|-8---9---8---6---4-4-4-0-6--|
D||6-6-6-6-6-6-6-6-6-6-6-6-6-6-6-6-|-9---9---9---6---4-4-4-0-7--|
A||--------------------------------|-------------------------7--|
E||--------------------------------|-------------------------5--|

Chorus.
  Don't let the sun.....    I wanna learn how to love, if I'm to know
E||-----------------------|--------------------------------------------|
B||-----------------------|----------12--------------------------------|
G||-----------------------|-9---------------------11-------------------|
D||-----------------------|--------------------------------------------|
A||-----------------------|--------------------------------------------|
E||-----------------------|--------------------------------------------|

E||------------------------------------------------------------0--|
B||------------------------------------------------------------0--|
G||--13r11h13-11---------13r11h13-11--------13r11h13-11-/8-4---6--|
D||---------------14-11---------------13-9---------------------6--|
A||------------------------------------------------------------4--|
E||---------------------------------------------------------------|

    Cause I'm forever lost   Oh yeah, I'm forever lost
E||--2---------------2------------2--------------2----|
B||--2---------------4------------2--------------4----|
G||--2---------------4------------2--------------4----|
D||--2---------------4------------2--------------4----|
A||--0---------------2------------0--------------2----|
E||---------------------------------------------------|

Verse.                                                                                   
                                                       x2
E||--0-----0-----0-----0-------0-0-0-|-4-----4-----4-----4-------4-4-4--|
B||--0-----0-----0-----0-------0-0-0-|-4-----4-----4-----4-------4-4-4--|
G||--9-----9-----9-----9-------9-9-9-|-4-4-4-4-4-4-4-4-4-4-4-4-4-4-4-4--|
D||--9-9-9-9-9-9-9-9-9-9-9-9-9-9-9-9-|-6-6-6-6-6-6-6-6-6-6-6-6-6-6-6-6--|
A||--7-7-7-7-7-7-7-7-7-7-7-7-7-7-7-7-|----------------------------------|
E||----------------------------------|----------------------------------|

It ends up.           x6
E||----------------------|---------------------------------|
B||----------------------|---------------------------------|
G||----------------------|-----------------11--x-11--x-9---|
D||-----9h11-------------|-----9h11--------9---x-9---x-9---|
A||--11------9h11--9h11--|--11------9h11-9-11--x-11--x-11--|
E||----------------------|---------------------------------|
 ||
 ||Study guitar       x6
E||--0-----------|--0-0--|-----------------7--x-7--x-0-----|
B||--0-----------|--0-0--|-----------------7--x-7--x-0-----|
G||--9-----------|--9-9--|-----------------9--x-9--x-9-----|
D||--9-----------|--9-9--|-----------------9--x-9--x-9-----|
A||--7-----------|--7-7--|-----------------7--x-7--x-7-----|
E||--------------|-------|---------------------------------|

That is everything.
Any comment or suggestion please write to
Volov7@yahoo.com.mx
Suggest correction
Creating personal tab
Creating personal tab
You can edit any tab online and save it as your Personal.

You can edit, replace or remove any tab part or add personal notes – all changes will be seen only by you.

Personal tabs can be accessed anytime from any device, even offline.
Learn more »
comments
print report bad tab
2 comments total.
0 reply
jackhood 10 Feb 15, 2006 07:43 AM

its too cramped together i gave up space it out and maybe add some words and stuff

0 reply
Philbert 10 Feb 23, 2006 11:36 AM

Looks ok to me. Good tab!

guest
Wanna post a correction for this tab? Suggest correction