Oops, an error
Loading. Please wait.

Take A Chance bass

version 2
version 2

Whole song

23 views 1 this week
no commentswrite comment
1 2 3 4 5
3 more votes to show rating
add to favorites
×
Save as Personal and add changes to this tab that will be seen only by you. Learn more ›
×
You can save this tab as Personal to edit and correct it or add notes. All changes will be seen only by you. Learn more »
launch autoscroll
font size
0
reset
guitar tuner
edit
Autoscroll
slow
fast
+/-
esc
set tempo
stop
Author
Difficulty
Take A Chance - The Magic Numbers

(Transcribed by Juako.07 using Transcribe 6)




[Intro]

  e e e e e e e e  e e e e e e e e  e e e e e e e e  e e e e e e e e
G|----------------|----------------|----------------|----------------|
D|----------------|----------------|----------------|----------------|
A|5-5-5-5-5-5-5-5-|5-5-5-5-5-5-5-0-|2-2-2-2-2-2-2-2-|2-2-2-2-2-2-2-0-|
E|----------------|----------------|----------------|----------------|

  e e e e e e e e  e e e e e e e e  e e e e e e e e  e e e e e e e e
G|----------------|----------------|----------------|----------------|
D|----------------|----------------|----------------|----------------|
A|5-5-5-5-5-5-5-5-|5-5-5-5-5-5-5-0-|2-2-2-2-2-2-2-2-|2-2-2-0-2-0-2-0-|
E|----------------|----------------|----------------|----------------|


[Verse]

  e e e e e e e e  e e e e e e e e  e e e e e e e e  e e e e q   q
G|----------------|----------------|----------------|----------------|
D|----------------|----------------|----------------|--------9-------|
A|5-5-5-5-5-5-5-5-|5-5-5-5-7-9-r---|----------------|------------9---|
E|----------------|--------------7-|--7-7-7-7-7-7-7-|7-7-7-7---------|

  e e e e e e e e  e e e e e e e e  e e e e e e e e  e e e e e e e e
G|----------------|----------------|----------------|----------------|
D|----------------|----------------|----------------|----------------|
A|7-7-7-7-7-7-7-7-|7-7-7-7-7-7-7-7\|0-0-0-0-0-0-0-0-|0-0-0-0-0-0-0-5-|
E|----------------|----------------|----------------|----------------|


  e e e e e e e e  e e e e e e e e  e e e e e e e e  e e e e e e e e
G|----------------|----------------|----------------|----------------|
D|----------------|----------------|----------------|----------2---2-|
A|--5-5-5-5-5-5-5-|5-5-5-5-4-5-4-2-|--2-2-2-2-2-2-2-|2-2-2-2-4---4---|
E|----------------|----------------|----------------|----------------|

  e e e e e e e e  e e e e e e e e  q   e e e e e e  e e e e e e e e
G|----------------|----------------|----------------|----------------|
D|--2-2-2-2-2-2-2-|2-2-2-2-2-2-2-2-|----------------|----------------|
A|----------------|----------------|0---0-0-0-0-0-0-|0-0-0-0-0-0-0-0-|
E|----------------|----------------|----------------|----------------|


[Chorus]
  q   q   q   q    q   q   q   q    q   q   q   q    q   q   e e e
G|----------------|----------------|----------------|----------------|
D|----------------|----------------|----------------|-------/141414\-|
A|----------------|----------------|----------------|----------------|
E|3---3---3---3---|3---3---3---3---|0---0---0---0---|0---0-----------|

  e e e e e e e e  e e e e e e e e  e e e e e e e e  e e e e e e e e
G|----------------|----------------|----------------|----------------|
D|----9-9-7-7-----|----------------|----7-7-5-5-----|----------------|
A|------------9-9-|7-7-9-9-7-7-----|0-0---------7-7-|5-5-7-7-5-5-----|
E|7-7-------------|------------9-9-|----------------|------------7-7-|

  q   q   q   q    q   q   q   q    q   q   q   q    q   q   q   q
G|----------------|----------------|----------------|----------------|
D|----------------|----------------|----------------|----------------|
A|----------------|----------------|10--10--10--10--|10--9-------7---|
E|3---3---3---3---|3---3---3---3/--|----------------|--------10------|


[Bridge]
  e e e e e e e e  e e e e e e e e  e e e e e e e e  e e e e e e e e
G|----------------|----------------|----------------|----------------|
D|----------------|----------------|----------------|----------------|
A|5-5-5-5-5-5-5-5-|5-5-5-5-5-5-5-0-|2-2-2-2-2-2-2-2-|2-2-2-2-2-2-2-0-|
E|----------------|----------------|----------------|----------------|


  e e e e e e e e  e e e e e e e e  e e e e e e e e  e e e e e e e e 
G|----------------|----------------|----------------|----------------|
D|----------------|----------------|----------------|----------------|
A|5-5-5-5-5-5-5-5-|5-5-5-5-5-5-5-0-|2-2-2-2-2-2-2-2-|2-2-2-0-2-0-2-0-|
E|----------------|----------------|----------------|----------------|

   e e e e e e e e  e e e e e e e e  e e e e e e e e  e e e e e e e e
G||----------------|----------------|----------------|----------------|
D|°----------------|----------------|----------------|----------------|
A|°5-5-5-5-5-5-5-5-|5-5-5-5-5-5-5-0-|2-2-2-2-2-2-2-2-|2-2-2-2-2-2-2-0-|
E||----------------|----------------|----------------|----------------|


  e e e e e e e e  e e e e e e e e  e e e e e e e e  e e e e e e e e   x2
G|----------------|----------------|----------------|----------------||
D|----------------|----------------|----------------|----------------°|
A|5-5-5-5-5-5-5-5-|5-5-5-5-5-5/7-9-|----------------|----------------°|
E|----------------|----------------|7-7-7-7-7-7-7-7-|7-7-7-7-7-7-7-7-||

[Verse] 


  e e e e e e e e  e e e e e e e e  e e e e e e e e  e e e e q   q
G|----------------|----------------|----------------|----------------|
D|----------------|----------------|----------------|--------9-------|
A|5-5-5-5-5-5-5-5-|5-5-5-5-7-9-r---|----------------|------------9---|
E|----------------|--------------7-|--7-7-7-7-7-7-7-|7-7-7-----------|

  e e e e e e e e  e e e e e e e e  e e e e e e e e  e e e e e e e e
G|----------------|----------------|----------------|----------------|
D|----------------|----------------|----------------|----------------|
A|7-7-7-7-7-7-7-7-|7-7-7-7-7-7-7-7\|0-0-0-0-0-0-0-0-|0-0-0-0-0-0-0-5-|
E|----------------|----------------|----------------|----------------|


  e e e e e e e e  e e e e e e e e  e e e e e e e e  e e e e e e e e
G|----------------|----------------|----------------|----------------|
D|----------------|----------------|----------------|----------2---2-|
A|--5-5-5-5-5-5-5-|5-5-5-5-4-5-4-2-|--2-2-2-2-2-2-2-|2-2-2-2-4---4---|
E|----------------|----------------|----------------|----------------|

  e e e e e e e e  e e e e e e e e  e e e e e e e e  e e e e e e e e
G|----------------|----------------|----------------|----------------|
D|--2-5-5-4-4-2-2-|2-2-5-5-4-4-2-2-|----------------|----------------|
A|----------------|----------------|0-0-0-0-0-0-0-0-|0-0-0-0-0-0-0-0-|
E|----------------|----------------|----------------|----------------|




[Chorus]
  q   q   q   q    q   q   q   q    q   q   q   q    q   q   e e e
G|----------------|----------------|----------------|----------------|
D|----------------|----------------|----------------|-------/141414\-|
A|----------------|----------------|----------------|----------------|
E|3---3---3---3---|3---3---3---3---|0---0---0---0---|0---0-----------|

  e e e e e e e e  e e e e e e e e  e e e e e e e e  e e e e e e e e
G|----------------|----------------|----------------|----------------|
D|----9-9-7-7-----|----------------|----7-7-5-5-----|----------------|
A|------------9-9-|7-7-9-9-7-7-----|0-0---------7-7-|5-5-7-7-5-5-----|
E|7-7-------------|------------9-9-|----------------|------------7-7-|

  q   q   q   q    q   q   q   q    q   q   q   q    q   q   e e e
G|----------------|----------------|----------------|----------------|
D|----------------|----------------|----------------|-------/141414\-|
A|----------------|----------------|----------------|----------------|
E|3---3---3---3---|3---3---3---3---|0---0---0---0---|0---0-----------|

  e e e e e e e e  e e e e e e e e  e e e e e e e e  e e e e e e e e
G|----------------|----------------|----------------|----------------|
D|----9-9-7-7-----|----------------|----7-7-5-5-----|----------------|
A|------------9-9-|7-7-9-9-7-7-----|0-0---------7-7-|5-5-7-7-5-5-----|
E|7-7-------------|------------9-9-|----------------|------------7-7-|


  q   q   q   q    q   q   q   q    q   q   q   q    q   q   q   q
G|----------------|----------------|----------------|----------------|
D|----------------|----------------|----------------|----------------|
A|----------------|----------------|10--10--10--10--|10--9-------7---|
E|3---3---3---3---|3---3---3---3/--|----------------|--------10------|





[Bridge]
  e e e e e e e e  e e e e e e e e  e e e e e e e e  e e e e e e e e
G|----------------|----------------|----------------|----------------|
D|----------------|----------------|----------------|----------------|
A|5-5-5-5-5-5-5-5-|5-5-5-5-5-5-5-0-|2-2-2-2-2-2-2-2-|2-2-2-2-2-2-2-0-|
E|----------------|----------------|----------------|----------------|


  e e e e e e e e  e e e e e e e e  e e e e e e e e  e e e e e e e e 
G|----------------|----------------|----------------|----------------|
D|----------------|----------------|----------------|----------------|
A|5-5-5-5-5-5-5-5-|5-5-5-5-5-5-5-0-|2-2-2-2-2-2-2-2-|2-2-2-0-2-0-2-0-|
E|----------------|----------------|----------------|----------------|

   e e e e e e e e  e e e e e e e e  e e e e e e e e  e e e e e e e e
G||----------------|----------------|----------------|----------------|
D|°----------------|----------------|----------------|----------------|
A|°5-5-5-5-5-5-5-5-|5-5-5-5-7-7-9-9-|2-2-2-2-2-2-2-2-|2-2-2-2-2-2-2-0-|
E||----------------|----------------|----------------|----------------|


  e e e e e e e e  e e e e e e e e  e e e e e e e e  e e e e e e e e   
G|----------------|----------------|----------------|----------------||
D|----------------|----------------|----------------|----------------°| x2
A|5-5-5-5-5-5-5-5-|5-5-5-5-7-7-9-9-|----------------|----------------°|
E|----------------|----------------|7-7-7-7-7-7-7-7-|7-7-7-7-7-7-7-7-|| 

   e e e e e e e e  e e e e e e e e  e e e e e e e e  e e e e e e e e
G|----------------|----------------|----------------|4---------------|
D|------------7---|--------7---7---|--------4-------|----------------|
A|5-5-5-5-5-5---5-|5-5-5-5---5---5-|2-2-2-2---2-2-2-|--2-2-2-2-2-2-0-|
E|----------------|----------------|----------------|----------------|


  e e e e e e e e  e e e e e e e e  e e q   q   q    e e e e e e e e   
G|----------------|----------------|----------------|----------------|
D|------------7---|--------7-------|----------------|----------------|
A|5-5-5-5-5-5---5-|5-5-5-5---5-5-5-|---/14--14--14--|1414141414141414|
E|----------------|----------------|7-7-------------|----------------| 



[Verse]
  e e e e e e e e  e e e e e e e e  e e e e e e e e  e e e e e e e e
G|----------------|----------------|----------------|----------------|
D|----------------|----------------|----------------|----------------|
A|5-5-5-5-5-5-5-5-|5-5-5-5-7-7-9---|----------------|----------------|
E|----------------|--------------7-|--7-7-7-7-7-7-7-|7-7-7-7-7-7-7-7-|

  e e e e e e e e  e e e e e e e e  e e e e e e e e  e e e e e e e e
G|----------------|----------------|----------------|----------------|
D|----------------|----------------|----------------|----------------|
A|7-7-7-7-7-7-7-7-|7-7-7-7-7-7-7-7\|0-0-0-0-0-0-0-0-|0-0-0-0-0-0-0-0-|
E|----------------|----------------|----------------|----------------|


  e e e e e e e e  e e e e e e e e  e e e e e e e e  e e e e e e e e
G|----------------|----------------|----------------|----------------|
D|----------------|----------------|----------------|----------2---2-|
A|5-5-5-5-5-5-5-5-|5-5-5-5-4-5-4-2-|--2-2-2-2-2-2-2-|2-2-2-2-4---4---|
E|----------------|----------------|----------------|----------------|

  e e e e e e e e  e e e e e e e e  e e e e e e e e  e e e e e e e e
G|----------------|----------------|----------------|----------------|
D|--2-5-5-4-4-2-2-|2-2-5-5-4-4-2-2-|----------------|----------------|
A|----------------|----------------|0-0-0-0-0-0-0-0-|0-0-0-0-0-0-0-0-|
E|----------------|----------------|----------------|----------------|



[Outro]
  q   q   q   q    q   q   q   q    q   q   q   q    q   q   q   q   
G|----------------|----------------|----------------|----------------|
D|----------------|----------------|----------------|----------------|
A|----------------|----------------|----------------|----------------|
E|3---3---3---3---|3---3---3---3---|0---0---0---0---|0---0---0---0---|

  q   q   q   q    q   q   q   q    q   q   q   q    q   q   e e e
G|----------------|----------------|----------------|----------------|
D|----------------|----------------|----------------|----2--/141414\-|
A|----------------|----------------|----------------|----------------|
E|3---3---3---3---|3---3---3---3---|0---0---0---0---|0---------------|


  q   q   q   q    q   q   q   q    e e e e e e e e  e e e e e e e e 
G|----------------|----------------|----------------|----------------|
D|----------------|----------------|----------------|----------------|
A|----------------|----------------|1010101010101010|1010101010101010|
E|3---3---3---3---|3---3---3---3/--|----------------|----------------|

  W
G|----------------|----------------|
D|0---------------|----------------|
A|----------------|----------------|
E|----------------|----------------|





************************************

| x   Dead note
| g   Grace note
| (n) Ghost note
| h   Hammer-on
| p   Pull-off
| r   Release
| >   Accented note
| t   Tapping
| b   Bend
| br  Bend release
| pb  Pre-bend
| pbr Pre-bend release
| /   Slide up
| \   Slide down
| ~   Vibrato
| s   Slap
| P   Pop
| PM  Palm mute
| TR  Trill
| N   Tremolo

************************************

            
            
Suggest correction
Creating personal tab
Creating personal tab
You can edit any tab online and save it as your Personal.

You can edit, replace or remove any tab part or add personal notes – all changes will be seen only by you.

Personal tabs can be accessed anytime from any device, even offline.
Learn more »
Give kudos to tab author, rate the tab!
1 2 3 4 5
comments
print report bad tab
guest
You may want to rate the tab now too:
select rating
Wanna post a correction for this tab? Suggest correction