Oops, an error
Loading. Please wait.

71 I Think Ill Make Another World chords

259 views 1 this week
no commentswrite comment
1 2 3 4 5
x 5
add to favorites
×
Save as Personal and add changes to this tab that will be seen only by you. Learn more ›
×
You can save this tab as Personal to edit and correct it or add notes. All changes will be seen only by you. Learn more »
launch autoscroll
font size
0
reset
transpose
0
reset
display chords
guitar tuner
edit
Autoscroll
slow
fast
+/-
esc
set tempo
stop
Strumming
There is no strumming pattern for this song yet. and get +5 IQ
The Magnetic Fields ~ '71 I Think I'll Make Another World

NO CAPO

Disc 1, Track 6 from the life-spanning "50 Song Memoir"

Please leave suggestions if anything's wrong; I'm glad to edit this if necessary.


[Intro]
    D
e|--------0---2---3--|
B|----3--------------|
G|--2---2---2---2----|
D|-------------------|
A|-------------------|
E|-------------------|


[Verse]
                          G        A
I think I'll make another world
                            D       G
And fill it with whatever I want
                        A
No one can say I can or can't

[Chorus]
             G    D   A
I can see it now

[Verse]
                          G       A 
I think I'll make another world
                          D      G 
It may not start out very large
                           A
But no one else will be in charge

[Chorus]
             G    D   A
I can see it now
             G    D   A
I can see it now

[Bridge]

"And we will dance" arpeggio:
   G                  A                 D                  G
e|------------------------------------------------------------------------|
B|-----3---------3--------5-------5---------7--------7-------3-------3----|
G|-4--------4---------6-------6---------7-------7--------4-------4--------|
D|---5---5-----5---5----7---7---7---7-----7---7---7---7----5---5---5---5--|
A|------------------------------------------------------------------------|
E|------------------------------------------------------------------------|

"No one will say that's all wrong":
   Em                  A               Em                  A
e|--------------------------------------------------------------------------|
B|------------------------2-------2--------------------------2-------2------|
G|-------0-------0----2-------2------------0-------0-----2-------2--------2-|
D|---2-------2----------2---2---2---2--2-------2-----------2---2---2---2----|
A|-----2---2---2---2---------------------2---2---2---2----------------------|
E|--------------------------------------------------------------------------|

            G
And we will dance you and I
     A 
Like we were very small
            D
Through the air through the night
    G
And through the marble hall
Em                        A
No one can say that's all wrong
      Em                     A
Cause I'll say get out of my song

[Verse]
                        G        A
Cause I can see another world
                          D       G
And I can make it with my hands
                    A
Who cares if no one understands

[Chorus]
             G   D   A
I can see it now
             G   D   A
I can see it now

[Bridge]

"Though all the stuff I've dreamed about" arpeggio:
   G                  A                 D                  G
e|------------------------------------------------------------------------|
B|-----3---------3--------5-------5---------7--------7-------3-------3----|
G|-4--------4---------6-------6---------7-------7--------4-------4--------|
D|---5---5-----5---5----7---7---7---7-----7---7---7---7----5---5---5---5--|
A|------------------------------------------------------------------------|
E|------------------------------------------------------------------------|

"No one will say that's all wrong":
   Em                  A               Em                  A
e|--------------------------------------------------------------------------|
B|------------------------2-------2--------------------------2-------2------|
G|-------0-------0----2-------2------------0-------0-----2-------2--------2-|
D|---2-------2----------2---2---2---2--2-------2-----------2---2---2---2----|
A|-----2---2---2---2---------------------2---2---2---2----------------------|
E|--------------------------------------------------------------------------|

               G
Though all the stuff I've dreamed about
      A 
Since I was just a zygote
             D
The headless karyotic
         G
With her plucky seeing eye-goat
Em                     A
No one can say it's all wrong
      Em                      A
Cause I can say "Hey, it's my song"

[Verse]
                        G      A 
Cause I can see another world
                          D     G 
And I can make it with my hands
                    A
Who cares if no one understands

[Chorus]
             G   D   A
I can see it now
             G     D    A
I can see it growing
              G    D    A
And moving by itself
                   G     D    A
And talking in its own way
                     G     D    A
It's realer than the old ways

G    D    A    (x2)
G

            
            
Suggest correction
Creating personal tab
Creating personal tab
You can edit any tab online and save it as your Personal.

You can edit, replace or remove any tab part or add personal notes – all changes will be seen only by you.

Personal tabs can be accessed anytime from any device, even offline.
Learn more »
comments
print report bad tab
guest
You may want to rate the tab now too:
select rating
Wanna post a correction for this tab? Suggest correction