Oops, an error
Loading. Please wait.

Come Back From San Francisco Tab

13 views 13 this week
no commentswrite comment
1 2 3 4 5
2 more votes to show rating
add to favorites
launch autoscroll
font size
0
reset
how to read this tab
guitar tuner
Autoscroll
slow
fast
+/-
esc
set tempo
stop
Help us to improve Ultimate-Guitar.com Take our survey!
×
Author
Difficulty
intermediate
About this tab version
First pattern is played freely. Use hybrid picking or fingerpicking on the first pattern if you're using an acoustic guitar to pick out the bass notes and be sure to roll chords for the best effect. Listen to the song for timing. Was this info helpful? Yes No
[Verse]
Come back from San Francisco.
E|-----------------------0---3---2-----------|
B|-------3---2---3-----------3---------------|
G|---2---2-----------2-------2---------------|
D|-------0---0---0-----------0---0---0---0---|
A|-------------------------------------------|
E|-------------------------------------------|

It can't be all that pretty,
E|-------------------------------------------|
B|-----------0---2---------------------------|
G|-------0-------------------2-------2-------|
D|-----------------------2-------2-------2---|
A|-------------------0-----------------------|
E|---3---------------------------------------|

When all of New York City misses you.
E|-----------------------------------|
B|-----------0---2-------------------|
G|-------0-------------------2-------|
D|-----------------------2-------2---|
A|-------------------0---------------|
E|---3-------------------------------|

[Chorus]
You need me like the wind needs the trees to blow 
E|-------------------------------------------------|-------------------------------------------|
B|-------------------------------------------------|-------------------------------------------|
G|-------------------------------------------------|-------------------------------------------|
D|-------------------0---2---0---------------------|-------------------0---2---0---------------|
A|-----------2---2---------------4b--0-------------|-----------2---2---------------4---2---4---|
E|---3---3-------------------------------0---0h2---|---3---3-----------------------------------|

in. Like the moon needs poetry, you need me.
E|-------------------------------------------------|-----------------------------------|
B|-------------------------------------------------|-----------------------------------|
G|-------------------------------------------------|-----------------------------------|
D|-------------------0---2---0---------------------|-------------------0---2---0-------|
A|-----------2---2---------------4b--0-------------|-----------2---2---------------4---|
E|---3---3-------------------------------0---0h2---|---3---3---------------------------|

[Outro]
When you betray me, betray me with a kiss.
E|---------------------------------------------------|---------------------------------------------------|
B|-----------3-----------3-----------2-----------2---|-----------0-----------0-----------3-----------3---|
G|-------2-----------2-----------2-----------2-------|-------2-----------2-----------2-----------2-------|
D|---0-----------0-----------0-----------0-----------|---0-----------0-----------0-----------0-----------|
A|---------------------------------------------------|---------------------------------------------------|
E|---------------------------------------------------|---------------------------------------------------|

Damn you. I've never stayed up as late as this.

***********************************

| h   Hammer-on
| B   Bend

***********************************

[Full Lyrics]
[Verse]
Come back from San Francisco
It can't be all that pretty 
When all of New York City misses you
Should pretty boys in discos
Distract you from your novel
Remember I'm awful in love with you

[Chorus]
You need me 
Like the wind needs the trees 
To blow in
Like the moon needs poetry
You need me

[Verse]
Come back from San Francisco
And kiss me, I've quit smoking
I miss doing the wild thing with you
Will you stay, I don't think so
But all I do is worry
Pack bags, call cabs, and hurry home to me

[Chorus]
You need me 
Like the wind needs the trees 
To blow in
Like the moon needs poetry
You need me

You need me 
Like the wind needs the trees 
To blow in
Like the moon needs poetry
You need me

[Outro]
When you betray me, betray me with a kiss
Damn you, I've never stayed up as late as this
Suggest correction
Give kudos to tab author, rate the tab!
1 2 3 4 5
comments
print report bad tab
guest
You may want to rate the tab now too:
select rating
Wanna post a correction for this tab? Suggest correction