Oops, an error
Loading. Please wait.

I Dont Want To Get Over You ukulele

version 3
version 3

Whole song

405 views 1 this week
no commentswrite comment
1 2 3 4 5
3 more votes to show rating
add to favorites
×
Save as Personal and add changes to this tab that will be seen only by you. Learn more ›
×
You can save this tab as Personal to edit and correct it or add notes. All changes will be seen only by you. Learn more »
launch autoscroll
font size
0
reset
transpose
0
reset
simplify chords
display chords
guitar tuner
edit
Autoscroll
slow
fast
+/-
esc
set tempo
stop
Author
Difficulty
Strumming
There is no strumming pattern for this song yet. and get +5 IQ
Tabbed by: Bl4ck0n3

Tuning: Standard Ukulele (gCEA)

Beautiful song. I transcribed it for ukulele based on this live version: 
https://www.youtube.com/watch?v=nG75u2ymoRI 

Timing vocals and picking in the bridgey part can be tricky 
but other than that it's fairly simple.

I did a little video for this tab: http://youtu.be/p4RpUBkxCzA

Cheers

Intro:
    C          G      C            G           C        G     D   
A|--3----------2------3------------2----0--2---3--------2-2---0-------0------|
E|-----0-------3----------0--------3----3--3------0-----3---3---2-----2------|
C|--------0----2--------------0----2-----------------0--2---------2----------|
g|---------------------------------------------------------------------------|

Verse:
                    C       G
A|------------------3-------2------------------------------------------------|
E|---------------------0----3------------------------------------------------|
C|-----------------------0--2------------------------------------------------|
g|---------------------------------------------------------------------------|
  I don't want to get over you

                          C       G         C        G
A|------------------------3-------2---------3--------2-----------------------|
E|---------------------------0----3-----------0------3-----------------------|
C|-----------------------------0--2-------------0----2-----------------------|
g|---------------------------------------------------------------------------|
  I guess I could take a sleeping pill and sleep at will

                 C       D
A|-------------3---------0---------------------------------------------------|
E|----------------0------2---------------------------------------------------|
C|-------------------0---2---------------------------------------------------|
g|-----------------------2---------------------------------------------------|
  ...and not have to go through what I go through I guess I should take 

    C          G       C          G          C       D
A|--3----------2-2-----3----------2--2-------3-------5-----------------------|
E|-----0-------3---3------0-------3----3-------0-----2-----------------------|
C|--------0----2-----2-------0----2------2--------0--2-----------------------|
g|---------------------------------------------------2-----------------------|
  Prozac right and just smile all night at somebody new

           Am      Em         C         D6
A|------------3----2----------3---------2------------------------------------|
E|--------------0--3------3------0------2------2-----------------------------|
C|-----------------4---4------------0---2------------------------------------|
g|---------2----------------------------2--------0---------------------------|
  Somebody not to bright but sweet and kind   who would

           Am      Em         C         D6
A|------------3----2----------3---------2------------------------------------|
E|--------------0--3------3------0------2------2-----------------------------|
C|-----------------4---4------------0---2------------------------------------|
g|---------2----------------------------2--------0---------------------------|
          try to get you off my mind         I could

           Am      Em         C         D6
A|------------3----2----------3---------2------------------------------------|
E|--------------0--3------3------0------2------------------------------------|
C|-----------------4---4------------0---2------------------------------------|
g|---------2----------------------------2------------------------------------|
             leave  this   agony   behind   

            C            D                                          C    G
A|----------3------------0------------------------------------------3----2---|
E|----------0------------2------------------------------------------0----3---|
C|----------0------------2------------------------------------------0----2---|
g|----------0------------2------------------------------------------0----0---|
  Which is just what I'd do If I wanted to but I don't want to get over you


Repeat for second part:

'Cause I don't want to get over love
I could listen to my therapist, pretend you don't exist
And not have to dream of what I dream of
I could listen to all my friends and go out again
And pretend it's enough or I could make a career of being blue
I could dress in black and read Camus
Smoke clove, cigarettes and drink Vermouth
Like I was 17, that would be a scream but I don't want to get over you



            
            
Suggest correction
Creating personal tab
Creating personal tab
You can edit any tab online and save it as your Personal.

You can edit, replace or remove any tab part or add personal notes – all changes will be seen only by you.

Personal tabs can be accessed anytime from any device, even offline.
Learn more »
Give kudos to tab author, rate the tab!
1 2 3 4 5
comments
print report bad tab
guest
You may want to rate the tab now too:
select rating
Wanna post a correction for this tab? Suggest correction