Oops, an error
Loading. Please wait.

Black Butterflies And Deja Vu tab

1,303 views 36 this week
no commentswrite comment
1 2 3 4 5
x 5
add to favorites
×
Save as Personal and add changes to this tab that will be seen only by you. Learn more ›
×
You can save this tab as Personal to edit and correct it or add notes. All changes will be seen only by you. Learn more »
launch autoscroll
font size
0
reset
how to read this tab
guitar tuner
edit
Autoscroll
slow
fast
+/-
esc
set tempo
stop
Author
Difficulty
[Chords]
F             133211
C             332010 (x35553)
Am            577555
A# (or Bbmaj) 688766

[Intro]
(Guitar 1)
e|--------0--------0------------0--------0----|--------0--------0----------0--------0----|
B|------6---6----6---6--------6---6----6---6--|------6---6----6---6------6---6----6---6--|
G|----5---------------------5-----------------|----5-------------------5-----------------|
D|--7----------7----------7----------7--------|--7----------7--------7----------7--------|
A|--------------------------------------------|------------------------------------------|
E|--------------------------------------------|------------------------------------------|

(Guitar 2)
e|------------------------------------|-----------------------------------|
B|------------------------------------|-----------------------------------|
G|------------------------------------|-----------------------------------|
D|--3-3-3-3-3-3-3-3--7-7-7-7-7-7-7-7--|--8-8-8-8-8-8-8-8-8-8-8-8-8-8-8-8--|
A|--3-3-3-3-3-3-3-3--7-7-7-7-7-7-7-7--|--8-8-8-8-8-8-8-8-8-8-8-8-8-8-8-8--|
E|--1-1-1-1-1-1-1-1--5-5-5-5-5-5-5-5--|--6-6-6-6-6-6-6-6-6-6-6-6-6-6-6-6--|

[Verse]
(Guitar 1)
e|--------0--------0------------0--------0----|--------0--------0----------0--------0----|
B|------6---6----6---6--------6---6----6---6--|------6---6----6---6------6---6----6---6--|
G|----5---------------------5-----------------|----5-------------------5-----------------|
D|--7----------7----------7----------7--------|--7----------7--------7----------7--------|
A|--------------------------------------------|------------------------------------------|
E|--------------------------------------------|------------------------------------------|

(Guitar 2)
e|------------------------------------|-----------------------------------|
B|------------------------------------|-----------------------------------|
G|------------------------------------|-----------------------------------|
D|--3-3-3-3-3-3-3-3--7-7-7-7-7-7-7-7--|--8-8-8-8-8-8-8-8-8-8-8-8-8-8-8-8--|
A|--3-3-3-3-3-3-3-3--7-7-7-7-7-7-7-7--|--8-8-8-8-8-8-8-8-8-8-8-8-8-8-8-8--|
E|--1-1-1-1-1-1-1-1--5-5-5-5-5-5-5-5--|--6-6-6-6-6-6-6-6-6-6-6-6-6-6-6-6--|
"What, What would you say..."

[Pre-Chorus]
(Guitar 1)
e|----------------------------|--------------------------|-------------------------|-------------------------|
B|----------------------------|--------------------------|-------------------------|-------------------------|
G|--14-14-14-14-14-14-14b(14)-|-14-14-14-14-14-14\12-12--|--14-14-14-14-14-14b(14)-|-14-14-14-14-14-14-1414--|
D|---x--x--x--x--x--x--xb( x)-|--x--x--x--x--x--x\ x--x--|---x--x--x--x--x--xb( x)-|--x--x--x--x--x--x--x-x--|
A|--12-12-12-12-12-12-12b(12)-|-12-12-12-12-12-12\10-10--|--12-12-12-12-12-12b(12)-|-12-12-12-12-12-12-1212--|
E|----------------------------|--------------------------|-------------------------|-------------------------|

(Guitar 2)
e|---------------------------------------------------------------------|
B|---------------------------------------------------------------------|
G|--7-7-7-7-7-7-7-7--5-5-5-5-5-5-5-5-----------------------------------|
D|--7-7-7-7-7-7-7-7--5-5-5-5-5-5-5-5--8-8-8-8-8-8-8-8-8-8-8-8-8-8-8-8--|
A|--5-5-5-5-5-5-5-5--3-3-3-3-3-3-3-3--8-8-8-8-8-8-8-8-8-8-8-8-8-8-8-8--|
E|------------------------------------6-6-6-6-6-6-6-6-6-6-6-6-6-6-6-6--|
"You flash like a setting sun..."

[Chorus]
(Guitar 1) (lightly palm muted)
  F                     C                     Am                    A#
e|--------0-------0----|--------0-------0----|--------0-------0----|--------0-------0----|
B|------6---6---6---6--|------6---6---6---6--|------6---6---6---6--|------6---6---6---6--|
G|----5----------------|----5----------------|----5----------------|----5----------------|
D|--7---------7--------|--7---------7--------|--7---------7--------|--7---------7--------|
A|---------------------|---------------------|---------------------|---------------------|
E|---------------------|---------------------|---------------------|---------------------|
 PM

 F                      C                     Am                    A#
e|--------0-------0----|--------0-------0----|--------0-------0----|--------0-------0----|
B|------6---6---6---6--|------6---6---6---6--|------6---6---6---6--|------6---6---6---6--|
G|----5----------------|----5----------------|----5----------------|----5----------------|
D|--7---------7--------|--7---------7--------|--7---------7--------|--7---------7--------|
A|---------------------|---------------------|---------------------|---------------------|
E|---------------------|---------------------|---------------------|---------------------|
 PM

(Guitar 2) (you can play the C Chord as a Power Chord as well: x35553)
e|--1~--------0~--------5~--------6~--------|--1~--------0~--------5~--------6~----------|
B|--1~--------1~--------5~--------6~--------|--1~--------1~--------5~--------6~----------|
G|--2~--------0~--------5~--------7~--------|--2~--------0~--------5~--------7~----------|
D|--3~--------2~--------7~--------8~--------|--3~--------2~--------7~--------8~----------|
A|--3~--------3~--------7~--------8~--------|--3~--------3~--------7~--------8~----------|
E|--1~--------3~--------5~--------6~--------|--1~--------3~--------5~--------6~----------|
"I lose my voice when I look at you..."      "Just another lovesick afternoon..."

[Instrumental]
(Guitar 1)
e|--------0--------0------------0--------0----|--------0--------0----------0--------0----|
B|------6---6----6---6--------6---6----6---6--|------6---6----6---6------6---6----6---6--|
G|----5---------------------5-----------------|----5-------------------5-----------------|
D|--7----------7----------7----------7--------|--7----------7--------7----------7--------|
A|--------------------------------------------|------------------------------------------|
E|--------------------------------------------|------------------------------------------|

(Guitar 2)
e|------------------------------------|-----------------------------------|
B|------------------------------------|-----------------------------------|
G|------------------------------------|-----------------------------------|
D|--3-3-3-3-3-3-3-3--7-7-7-7-7-7-7-7--|--8-8-8-8-8-8-8-8-8-8-8-8-8-8-8-8--|
A|--3-3-3-3-3-3-3-3--7-7-7-7-7-7-7-7--|--8-8-8-8-8-8-8-8-8-8-8-8-8-8-8-8--|
E|--1-1-1-1-1-1-1-1--5-5-5-5-5-5-5-5--|--6-6-6-6-6-6-6-6-6-6-6-6-6-6-6-6--|

[Verse]
(Guitar 1)
e|--------0--------0------------0--------0----|--------0--------0----------0--------0----|
B|------6---6----6---6--------6---6----6---6--|------6---6----6---6------6---6----6---6--|
G|----5---------------------5-----------------|----5-------------------5-----------------|
D|--7----------7----------7----------7--------|--7----------7--------7----------7--------|
A|--------------------------------------------|------------------------------------------|
E|--------------------------------------------|------------------------------------------|

(Guitar 2)
e|------------------------------------|-----------------------------------|
B|------------------------------------|-----------------------------------|
G|------------------------------------|-----------------------------------|
D|--3-3-3-3-3-3-3-3--7-7-7-7-7-7-7-7--|--8-8-8-8-8-8-8-8-8-8-8-8-8-8-8-8--|
A|--3-3-3-3-3-3-3-3--7-7-7-7-7-7-7-7--|--8-8-8-8-8-8-8-8-8-8-8-8-8-8-8-8--|
E|--1-1-1-1-1-1-1-1--5-5-5-5-5-5-5-5--|--6-6-6-6-6-6-6-6-6-6-6-6-6-6-6-6--|
"Just yesterday, north of LA..."

[Pre-Chorus]
(Guitar 1)
e|----------------------------|--------------------------|-------------------------|-------------------------|
B|----------------------------|--------------------------|-------------------------|-------------------------|
G|--14-14-14-14-14-14-14b(14)-|-14-14-14-14-14-14\12-12--|--14-14-14-14-14-14b(14)-|-14-14-14-14-14-14-1414--|
D|---x--x--x--x--x--x--xb( x)-|--x--x--x--x--x--x\ x--x--|---x--x--x--x--x--xb( x)-|--x--x--x--x--x--x--x-x--|
A|--12-12-12-12-12-12-12b(12)-|-12-12-12-12-12-12\10-10--|--12-12-12-12-12-12b(12)-|-12-12-12-12-12-12-1212--|
E|----------------------------|--------------------------|-------------------------|-------------------------|

(Guitar 2)
e|---------------------------------------------------------------------|
B|---------------------------------------------------------------------|
G|--7-7-7-7-7-7-7-7--5-5-5-5-5-5-5-5-----------------------------------|
D|--7-7-7-7-7-7-7-7--5-5-5-5-5-5-5-5--8-8-8-8-8-8-8-8-8-8-8-8-8-8-8-8--|
A|--5-5-5-5-5-5-5-5--3-3-3-3-3-3-3-3--8-8-8-8-8-8-8-8-8-8-8-8-8-8-8-8--|
E|------------------------------------6-6-6-6-6-6-6-6-6-6-6-6-6-6-6-6--|
"You crash like a rolling wave..."

[Chorus]
(Guitar 1) (lightly palm muted)
  F                     C                     Am                    A#
e|--------0-------0----|--------0-------0----|--------0-------0----|--------0-------0----|
B|------6---6---6---6--|------6---6---6---6--|------6---6---6---6--|------6---6---6---6--|
G|----5----------------|----5----------------|----5----------------|----5----------------|
D|--7---------7--------|--7---------7--------|--7---------7--------|--7---------7--------|
A|---------------------|---------------------|---------------------|---------------------|
E|---------------------|---------------------|---------------------|---------------------|
 PM

 F                      C                     Am                    A#
e|--------0-------0----|--------0-------0----|--------0-------0----|--------0-------0----|
B|------6---6---6---6--|------6---6---6---6--|------6---6---6---6--|------6---6---6---6--|
G|----5----------------|----5----------------|----5----------------|----5----------------|
D|--7---------7--------|--7---------7--------|--7---------7--------|--7---------7--------|
A|---------------------|---------------------|---------------------|---------------------|
E|---------------------|---------------------|---------------------|---------------------|
 PM

(Guitar 2)
e|--1~--------0~--------5~--------6~--------|--1~--------0~--------5~--------6~----------|
B|--1~--------1~--------5~--------6~--------|--1~--------1~--------5~--------6~----------|
G|--2~--------0~--------5~--------7~--------|--2~--------0~--------5~--------7~----------|
D|--3~--------2~--------7~--------8~--------|--3~--------2~--------7~--------8~----------|
A|--3~--------3~--------7~--------8~--------|--3~--------3~--------7~--------8~----------|
E|--1~--------3~--------5~--------6~--------|--1~--------3~--------5~--------6~----------|
"I lose my voice when I look at you..."      "Just another lovesick afternoon..."

[Bridge]
(Guitar 1) (lightly palm muted)
e|----------------------------------------------------|---------------------------------------------|
B|----------------------------------------------------|----------------------------11-10-----11-10--|
G|--12-1212-12-12-12-10-12b--12-1212-12-12-12-10-12b--|--12-1212-12-12-12-10-12b-10------10-10------|
D|----------------------------------------------------|---------------------------------------------|
A|----------------------------------------------------|---------------------------------------------|
E|----------------------------------------------------|---------------------------------------------|
 PM

(Guitar 2)
e|--1~--------0~--------5~--------6~--------|
B|--1~--------1~--------5~--------6~--------|
G|--2~--------0~--------5~--------7~--------|
D|--3~--------2~--------7~--------8~--------|
A|--3~--------3~--------7~--------8~--------|
E|--1~--------3~--------5~--------6~--------|
   
(Guitar 3)
 F                      C                     Am                    A#
e|--------0-------0----|--------0-------0----|--------0-------0----|--------0-------0----|
B|------6---6---6---6--|------6---6---6---6--|------6---6---6---6--|------6---6---6---6--|
G|----5----------------|----5----------------|----5----------------|----5----------------|
D|--7---------7--------|--7---------7--------|--7---------7--------|--7---------7--------|
A|---------------------|---------------------|---------------------|---------------------|
E|---------------------|---------------------|---------------------|---------------------|

(Guitar 1) (lightly palm muted)
e|----------------------------------------------------|---------------------------------------------|
B|----------------------------------------------------|----------------------------11-10-----11-10--|
G|--12-1212-12-12-12-10-12b--12-1212-12-12-12-10-12b--|--12-1212-12-12-12-10-12b-10------10-10------|
D|----------------------------------------------------|---------------------------------------------|
A|----------------------------------------------------|---------------------------------------------|
E|----------------------------------------------------|---------------------------------------------|
 PM
                                        
(Guitar 2)
e|--1~--------0~--------5~--------6~--------|
B|--1~--------1~--------5~--------6~--------|
G|--2~--------0~--------5~--------7~--------|
D|--3~--------2~--------7~--------8~--------|
A|--3~--------3~--------7~--------8~--------|
E|--1~--------3~--------5~--------6~--------|
"I've been searching for the right words..."

(Guitar 3)
 F                      C                     Am                    A#
e|--------0-------0----|--------0-------0----|--------0-------0----|--------0-------0----|
B|------6---6---6---6--|------6---6---6---6--|------6---6---6---6--|------6---6---6---6--|
G|----5----------------|----5----------------|----5----------------|----5----------------|
D|--7---------7--------|--7---------7--------|--7---------7--------|--7---------7--------|
A|---------------------|---------------------|---------------------|---------------------|
E|---------------------|---------------------|---------------------|---------------------|

(Guitar 1) (less palm muted)                              (*not palm muted)
e|----------------------------------------------------|---------------------------------------------|
B|----------------------------------------------------|----------------------------11-10-----11-10--|
G|--12-1212-12-12-12-10-12b--12-1212-12-12-12-10-12b--|--12-1212-12-12-12-10-12b-10------10-10------|
D|----------------------------------------------------|---------------------------------------------|
A|----------------------------------------------------|---------------------------------------------|
E|----------------------------------------------------|---------------------------------------------|
 PM

(Guitar 2)
e|--1~--------0~--------5~--------6~--------|
B|--1~--------1~--------5~--------6~--------|
G|--2~--------0~--------5~--------7~--------|
D|--3~--------2~--------7~--------8~--------|
A|--3~--------3~--------7~--------8~--------|
E|--1~--------3~--------5~--------6~--------|
"There are only 26 letters I can use..."

(Guitar 3)
 F                      C                     Am                    A#
e|--------0-------0----|--------0-------0----|--------0-------0----|--------0-------0----|
B|------6---6---6---6--|------6---6---6---6--|------6---6---6---6--|------6---6---6---6--|
G|----5----------------|----5----------------|----5----------------|----5----------------|
D|--7---------7--------|--7---------7--------|--7---------7--------|--7---------7--------|
A|---------------------|---------------------|---------------------|---------------------|
E|---------------------|---------------------|---------------------|---------------------|

[Chorus]
(Guitar 1)
 F                      C                     Am                    A#
e|--------0-------0----|--------0-------0----|--------0-------0----|--------0-------0----|
B|------6---6---6---6--|------6---6---6---6--|------6---6---6---6--|------6---6---6---6--|
G|----5----------------|----5----------------|----5----------------|----5----------------|
D|--7---------7--------|--7---------7--------|--7---------7--------|--7---------7--------|
A|---------------------|---------------------|---------------------|---------------------|
E|---------------------|---------------------|---------------------|---------------------|

(Guitar 2)
e|--1-1-1-1-1-1-1-1--0-0-0-0-0-0-0-0--|--5-5-5-5-5-5-5-5--6-6-6-6-6-6-6-6--|
B|--1-1-1-1-1-1-1-1--1-1-1-1-1-1-1-1--|--5-5-5-5-5-5-5-5--6-6-6-6-6-6-6-6--|
G|--2-2-2-2-2-2-2-2--0-0-0-0-0-0-0-0--|--5-5-5-5-5-5-5-5--7-7-7-7-7-7-7-7--|
D|--3-3-3-3-3-3-3-3--2-2-2-2-2-2-2-2--|--7-7-7-7-7-7-7-7--8-8-8-8-8-8-8-8--|
A|--3-3-3-3-3-3-3-3--3-3-3-3-3-3-3-3--|--7-7-7-7-7-7-7-7--8-8-8-8-8-8-8-8--|
E|--1-1-1-1-1-1-1-1--3-3-3-3-3-3-3-3--|--5-5-5-5-5-5-5-5--6-6-6-6-6-6-6-6--|
"I lose my voice when I look at you..."

(Guitar 1)
 F                      C                     Am                    A#
e|--------0-------0----|--------0-------0----|--------0-------0----|--------0-------0----|
B|------6---6---6---6--|------6---6---6---6--|------6---6---6---6--|------6---6---6---6--|
G|----5----------------|----5----------------|----5----------------|----5----------------|
D|--7---------7--------|--7---------7--------|--7---------7--------|--7---------7--------|
A|---------------------|---------------------|---------------------|---------------------|
E|---------------------|---------------------|---------------------|---------------------|

(Guitar 2)
e|--1-1-1-1-1-1-1-1--0-0-0-0-0-0-0-0--|--5-5-5-5-5-5-5-5--6-6-6-6-6-6-6-6--|
B|--1-1-1-1-1-1-1-1--1-1-1-1-1-1-1-1--|--5-5-5-5-5-5-5-5--6-6-6-6-6-6-6-6--|
G|--2-2-2-2-2-2-2-2--0-0-0-0-0-0-0-0--|--5-5-5-5-5-5-5-5--7-7-7-7-7-7-7-7--|
D|--3-3-3-3-3-3-3-3--2-2-2-2-2-2-2-2--|--7-7-7-7-7-7-7-7--8-8-8-8-8-8-8-8--|
A|--3-3-3-3-3-3-3-3--3-3-3-3-3-3-3-3--|--7-7-7-7-7-7-7-7--8-8-8-8-8-8-8-8--|
E|--1-1-1-1-1-1-1-1--3-3-3-3-3-3-3-3--|--5-5-5-5-5-5-5-5--6-6-6-6-6-6-6-6--|
"Just another lovesick afternoon..."

[Outro]
(Guitar 1)
e|----------------------------|----------------------------|-------------------------------------------------|
B|----------------------------|----------------------------|------------------------------------11-12--11-12-|
G|-12-121212-12-121212-10-12b-|-12-121212-12-121212-10-12b-|-12-121212-12-12-121212-12-10-12b-10-----10------|
D|----------------------------|----------------------------|-------------------------------------------------|
A|----------------------------|----------------------------|-------------------------------------------------|
E|----------------------------|----------------------------|-------------------------------------------------|

(Guitar 2)
e|--1-1-1-1-1-1-1-1--0-0-0-0-0-0-0-0--|--5-5-5-5-5-5-5-5--6-6-6-6-6-6-6-6--|
B|--1-1-1-1-1-1-1-1--1-1-1-1-1-1-1-1--|--5-5-5-5-5-5-5-5--6-6-6-6-6-6-6-6--|
G|--2-2-2-2-2-2-2-2--0-0-0-0-0-0-0-0--|--5-5-5-5-5-5-5-5--7-7-7-7-7-7-7-7--|
D|--3-3-3-3-3-3-3-3--2-2-2-2-2-2-2-2--|--7-7-7-7-7-7-7-7--8-8-8-8-8-8-8-8--|
A|--3-3-3-3-3-3-3-3--3-3-3-3-3-3-3-3--|--7-7-7-7-7-7-7-7--8-8-8-8-8-8-8-8--|
E|--1-1-1-1-1-1-1-1--3-3-3-3-3-3-3-3--|--5-5-5-5-5-5-5-5--6-6-6-6-6-6-6-6--|
"I lose my voice when I look at you..."

(Guitar 1)
e|--------0-------0----|--------0-------0----|--------0-------0----|--------0-------0----|
B|------6---6---6---6--|------6---6---6---6--|------6---6---6---6--|------6---6---6---6--|
G|----5----------------|----5----------------|----5----------------|----5----------------|
D|--7---------7--------|--7---------7--------|--7---------7--------|--7---------7--------|
A|---------------------|---------------------|---------------------|---------------------|
E|---------------------|---------------------|---------------------|---------------------|

(Guitar 2) hold until end.
e|--1~-------------|
B|--1~-------------|
G|--2~-------------|
D|--3~-------------|
A|--3~-------------|
E|--1~-------------|
"Just another lovesick afternoon, black butterflies & deja vu. Hoping for the right words..."



************************************

| \   Slide down
| x   Dead note
| PM  Palm mute
| ~   Vibrato
| b   Bend

************************************
Suggest correction
Creating personal tab
Creating personal tab
You can edit any tab online and save it as your Personal.

You can edit, replace or remove any tab part or add personal notes – all changes will be seen only by you.

Personal tabs can be accessed anytime from any device, even offline.
Learn more »
comments
print report bad tab
guest
You may want to rate the tab now too:
select rating
Wanna post a correction for this tab? Suggest correction