Oops, an error
Loading. Please wait.

Black Butterflies And Deja Vu chords

version 4
version 4

Whole song

  • Acoustic friendly version of the song. Capo on the 5th fret. Standard tuning.
  • This tab is based off the acoustic version of this... Show more
  • Intro, Verse, Chorus, and Bridge Riffs are included.
55 views 9 this week
no commentswrite comment
1 2 3 4 5
2 more votes to show rating
add to favorites
×
Save as Personal and add changes to this tab that will be seen only by you. Learn more ›
×
You can save this tab as Personal to edit and correct it or add notes. All changes will be seen only by you. Learn more »
launch autoscroll
font size
0
reset
transpose
0
reset
simplify chords
display chords
guitar tuner
edit
Autoscroll
slow
fast
+/-
esc
set tempo
stop
About this tab version
Intro, Verse, Chorus, and Bridge Riffs are included. Was this info helpful? Yes No
Strumming
There is no strumming pattern for this song yet. and get +5 IQ
[Intro]
e|------0-----0--------0-----0-----|
B|-----6-6---6-6------6-6---6-6----|
G|----5----------5---5----------5--|
D|---7------7-------7------7-------|
A|---------------------------------|
E|---------------------------------|

e|------0-----0--------0-----0-----|
B|-----6-6---6-6------6-6---6-6----|
G|----5----------5---5-------------|
D|---7------7-------7------7-------|
A|---------------------------------|
E|---------------------------------|

F Am Bb

[Verse 1]
e|------0-----0--------0-----0-----|
B|-----6-6---6-6------6-6---6-6----|
G|----5----------5---5----------5--|
D|---7------7-------7------7-------|
A|---------------------------------|
E|---------------------------------|

e|------0-----0--------0-----0-----|
B|-----6-6---6-6------6-6---6-6----|
G|----5----------5---5-------------|
D|---7------7-------7------7-------|
A|---------------------------------|
E|---------------------------------|

F                  Am
What would you say if you could say
Bb
Everything you needed to

To the one, you needed to?
Dm
You flash like a setting sun
Csus2
You come around, I come undone
Bbsus2
Can't find the sound under my tongue

When I look at you

[Chorus]
e|------0-----0--------0-----0-----|
B|-----6-6---6-6------6-6---6-6----|
G|----5----------5---5----------5--|
D|---7------7-------7------7-------|
A|---------------------------------|
E|---------------------------------|

e|------0-----0--------0-----0-----|
B|-----6-6---6-6------6-6---6-6----|
G|----5----------5---5-------------|
D|---7------7-------7------7-------|
A|---------------------------------|
E|---------------------------------|

F
I lose my voice when I look at you
Csus2
Can't make a noise though I'm trying to
Dm
Tell you all the right words
Bbsus2
Waiting on the right words
F
Just another lovesick afternoon
Csus2
Black Butterflies & Déjà Vu
Dm
Hoping for the right words
Bbsus2
Waiting for the right words

[Verse 2]
e|------0-----0--------0-----0-----|
B|-----6-6---6-6------6-6---6-6----|
G|----5----------5---5----------5--|
D|---7------7-------7------7-------|
A|---------------------------------|
E|---------------------------------|

e|------0-----0--------0-----0-----|
B|-----6-6---6-6------6-6---6-6----|
G|----5----------5---5-------------|
D|---7------7-------7------7-------|
A|---------------------------------|
E|---------------------------------|

F              Am
Just yesterday north of LA
Bb
I couldn't help but think of you

Every time I think of you
Dm
You crash like a rolling wave
Csus2
You come around I lose my brain
Bbsus2
Can't find the sound under my tongue

When I look at you

[Chorus]
e|------0-----0--------0-----0-----|
B|-----6-6---6-6------6-6---6-6----|
G|----5----------5---5----------5--|
D|---7------7-------7------7-------|
A|---------------------------------|
E|---------------------------------|

e|------0-----0--------0-----0-----|
B|-----6-6---6-6------6-6---6-6----|
G|----5----------5---5-------------|
D|---7------7-------7------7-------|
A|---------------------------------|
E|---------------------------------|

F
I lose my voice when I look at you
Csus2
Can't make a noise though I'm trying to
Dm
Tell you all the right words
Bbsus2
Waiting on the right words
F
Just another lovesick afternoon
Csus2
Black Butterflies & Déjà Vu
Dm
Hoping for the right words
Bbsus2
Waiting for the right words

[Bridge]
e|---------------------------------------------------|
B|--8-8-8-8-8-8-8----10b----8-8-8-8-8-8-8----10b-----|
G|----------------10--------------------10-----------|
D|---------------------------------------------------|
A|---------------------------------------------------|
E|---------------------------------------------------|

e|---------------------------------------------------|
B|--8-8-8-8-8-8-8----10b--8-------11-10-------11-10--|
G|----------------10--------10-10-------10-10--------|
D|---------------------------------------------------|
A|---------------------------------------------------|
E|---------------------------------------------------

F                           Csus2
I've been searching for the right words
    Dm               Bbsus2
But I can't even find an echo

Don't you let go
F
There are only twenty
Csus2
Six letters I can use
Dm                Bbsus2
Just to tell you I won't let go

Don't you let go

[Chorus]
e|------0-----0--------0-----0-----|
B|-----6-6---6-6------6-6---6-6----|
G|----5----------5---5----------5--|
D|---7------7-------7------7-------|
A|---------------------------------|
E|---------------------------------|

e|------0-----0--------0-----0-----|
B|-----6-6---6-6------6-6---6-6----|
G|----5----------5---5-------------|
D|---7------7-------7------7-------|
A|---------------------------------|
E|---------------------------------|

F
I lose my voice when I look at you
Csus2
Can't make a noise though I'm trying to
Dm
Tell you all the right words
Bbsus2
Waiting on the right words
F
Just another lovesick afternoon
Csus2
Black Butterflies & Déjà Vu
Dm
Hoping for the right words
Bbsus2
Waiting for the right words

[Chorus]
F
I lose my voice when I look at you
Csus2
Can't make a noise though I'm trying to
Dm
Tell you all the right words
Bbsus2
Waiting on the right words
F
Just another lovesick afternoon
Csus2
Black Butterflies & Déjà Vu
Dm
Hoping for the right words
Bbsus2
Waiting for the right words

            
            
Suggest correction
Creating personal tab
Creating personal tab
You can edit any tab online and save it as your Personal.

You can edit, replace or remove any tab part or add personal notes – all changes will be seen only by you.

Personal tabs can be accessed anytime from any device, even offline.
Learn more »
Give kudos to tab author, rate the tab!
1 2 3 4 5
comments
print report bad tab
guest
You may want to rate the tab now too:
select rating
Wanna post a correction for this tab? Suggest correction