Oops, an error
Loading. Please wait.

Count Em One Two Three Bass Tab

4,749 views 3 this week
no commentswrite comment
1 2 3 4 5
excellent!
x 1
add to favorites
launch autoscroll
font size
0
reset
guitar tuner
Tab Pro tools
  • play this tab
  • loop segment
  • change instrument
  • show fretboard
  • metronome
Autoscroll
slow
fast
+/-
esc
set tempo
stop
-------------------------------------------------------------------------------
			     Count 'em one, two, three - The Maine
-------------------------------------------------------------------------------

Tabbed By : RyMal12
e-mail: 

Tuning: Standard

Intro/Verse
G|------------------------|
D|------------------------| x8
A|---44455--44455---------|
E|-----------------2222---|

Pre-chorus                          4th time
G|-------------------|        |-------------------|
D|-------------------| x3     |-------------------|
A|---44445-----------|        |---4444444455555---|
E|----------2~-------|        |-------------------|

Chorus
G|---------------------------------------------------|
D|---------------------------------------------------| x2
A|----0-0-0000----5-5-5555----------------5-5-5555---|
E|----------------------------2-2-2222---------------|

Verse x6 
Pre-Chorus x4
 
Chorus # 2                                                   hold note
G|---------------------------------------------------|       |-----|
D|---------------------------------------------------| x2    |-----|
A|----0-0-0000----5-5-5555----------------5-5-5555---|       |--0~-|
E|----------------------------2-2-2222---------------|       |-----|

No Bass until 1:57

G|----------------------------|
D|----------------------------| x4
A|---00000000-----------------|
E|-------------22222222-------|

Chorus x2

Ending

G|-----------------------------|
D|-----------------------------|
A|---44445---------44445-------|
E|---------2~------------2~----|



| /  slide up
| \  slide down
| h  hammer-on
| p  pull-off
| ~  vibrato
| +  harmonic
| x  Mute note
comments
We did not receive enough feedback on this tab! Please rate:
print report bad tab
1 2 3 4 5
I want to post or [tab]
guest
You may want to rate the tab now too:
select rating
Please do not post tabs as comments. Select "correction" instead!