Oops, an error
Loading. Please wait.

Count Em One Two Three Tab

version 1
version 1

Whole song

19,667 views 1 this week
no commentswrite comment
1 2 3 4 5
please rate
add to favorites
launch autoscroll
font size
0
reset
how to read this tab
guitar tuner
Autoscroll
slow
fast
+/-
esc
set tempo
stop
Help us to improve Ultimate-Guitar.com Take our survey!
×
Author
Difficulty
Capo
novice
2nd fret
Band: The Maine
Song: Count 'Em One, Two, Three
Album:
Tabbed By: Matt Florio; myspace.com/mattflorio2
Email: Shempashland@yahoo.com

All you have to do is listen to the song and follow
it a couple of times for it all to make sense. Listen very closely for lead
parts.. use headphones!
Any questions... contact me on myspace or email!
enjoy.

Tunning: Standard w/ a Capo on the 2nd Fret

Intro/Verse
Guitar 1
e-00000-00000-00---|
b-33333-33333-33---|
g-00000-00000-00---|
d-00000-00000-22---|
a-22233-22233-22---|
e-------------00---|

guitar 2 riffs in intro
e-10p7-|-7h8p7-|----10---|
b-----8|------8|-7h8-----|
g------|-------|---------|
d------|-------|---------|
a------|-------|---------|
e------|-------|---------|


guitar 2 riffs in verse
e-------------|-----------------------------------|
b-2/4/2-2/4p0-|-12-12-12-12-10---8-12-12-12-15-12-|
g-------------|-----------------------------------|
d-------------|-----------------------------------|
a-------------|-----------------------------------|
e-------------|-----------------------------------|
"lets count.." "the looks.."

Chorus
guitar 1
e-3--2--0--0----|
b-3--3--3--3----|
g-0--2--0--0----|
d-0--0--2--2----|
a-2-----2--3----|
e-3-----0-------|

guitar 2
e-0--0--0--0---|
b-3--3--3--3---|
g-4--0--0--0---|
d-5--4--2--2---|
a-5--5--2--3---|
e-------0------|

Bridge
guitar 1
e--3-----0-----|
b--3-----3-----|
g--0-----0-----|
d--0-----2-----|
a--2-----3-----|
e--3-----------|
"reach out.."

guitar 2
e--0-----0----|
b--3-----3----|
g--4-----0----|
d--5-----4----|
a--5-----5----|
e-------------|

Outro
guitar 1
e-00000-00000-000---|
b-33333-33333-333---|
g-00000-00000-000---|
d-00000-00000-222---|
a-22233-22233-222---|
e-------------000---|

guitar 2
e------------------|
b-12-12-12-10-10-8-|
g------------------|
d------------------|
a------------------|
e------------------|
Suggest correction
What's this?
You can suggest a correction to this tab. Community and Mods will review your correction and vote to approve or reject it.
comments
We did not receive enough feedback on this tab! Please rate:
print report bad tab
1 2 3 4 5
guest
You may want to rate the tab now too:
select rating
Please do not post tabs as comments. Select "correction" instead!