Oops, an error
Loading. Please wait.

Count Em One Two Three Tab

version 2
version 2

Whole song

4,421 views 3 this week
no commentswrite comment
1 2 3 4 5
please rate
add to favorites
launch autoscroll
font size
0
reset
how to read this tab
guitar tuner
Autoscroll
slow
fast
+/-
esc
set tempo
stop
Help us to improve Ultimate-Guitar.com Take our survey!
×
Author
Capo
2nd fret
Tuning: Standard w/ Capo on 2nd Fret

Intro

e-00000-00000-000---|
b-33333-33333-333---|
g-00000-00000-000---|
d-00000-00000-222---|
a-22233-22233-222---| x4
e-------------000---|

Verse 1

e-------------------|
b-------------------|
g-------------------|
d-------------------|
a-22233-22233-222---| x4
e-------------000---|
  ***** ***** *** P.M

Pre-Chorus

e-00000-0---------------------|
b-33333-3--12-12-12-12-10-----|
g-00000-0-----------------12/-|
d-00000-2---------------------|
a-22233-2---------------------|
e-------0---------------------|

e-00000-0--------------------|
b-33333-3--12-12-12-15b16b15-|
g-00000-0--------------------|
d-00000-2--------------------|
a-22233-2--------------------|
e-------0--------------------|

e-00000-0---------------------|
b-33333-3--12-12-12-12-10-----|
g-00000-0-----------------12/-|
d-00000-2---------------------|
a-22233-2---------------------|
e-------0---------------------|

e-00000-00000000---|
b-33333-33333333---|
g-00000-00000000---|
d-00000-00000000---|
a-22233-22333333---|
e------------------|

Chorus 

e-3-3-3333-2-2-2222-0-0-0000-0-0-0000--|
b-3-3-3333-3-3-3333-3-3-3333-3-3-3333--|
g-0-0-0000-2-2-2222-0-0-0000-0-0-0000--|
d-0-0-0000-0-0-0000-2-2-2222-2-2-2222--|
a-2-2-2222----------2-2-2222-3-3-3333--| x2
e-3-3-3333----------0-0-0000-----------|

Verse 2

e-------------------|
b-------------------|
g-------------------|
d-------------------|
a-22233-22233-222---| x2
e-------------000---|
  ***** ***** *** P.M

e-00000-00000-000---|
b-33333-33333-333---|
g-00000-00000-000---|
d-00000-00000-222---|
a-22233-22233-222---| x2
e-------------000---|

Pre-Chorus

Chorus


Bridge 

e—3-3-3333-3-3-3333-0-0-0000-0-0-0000-|
b—3-3-3333-3-3-3333-3-3-3333-3-3-3333-|
g—0-0-0000-0-0-0000-0-0-0000-0-0-0000-|
d—0-0-0000-0-0-0000-2-2-2222-2-2-2222-|
a—2-2-2222-2-2-2222-3-3-3333-3-3-3333-| x4
e—3-3-3333-3-3-3333-------------------|

Chorus

Outro

e-00000-0---------------------|
b-33333-3--12-12-12-12-10-----|
g-00000-0-----------------12/-|
d-00000-2---------------------|
a-22233-2---------------------|
e-------0---------------------|


Suggest correction
Give kudos to tab author, rate the tab!
1 2 3 4 5
comments
print report bad tab
guest
You may want to rate the tab now too:
select rating
Please do not post tabs as comments. Select "correction" instead!