Oops, an error
Loading. Please wait.

Daisy Tab

32,121 views 1 this week
7 commentsread comments
1 2 3 4 5
x 9
add to favorites
launch autoscroll
font size
0
reset
how to read this tab
guitar tuner
Autoscroll
slow
fast
+/-
esc
set tempo
stop
Help us to improve Ultimate-Guitar.com Take our survey!
×
Artist: The Maine
Song: Daisy (Acoustic)
Album: Old Ep
Tunning: Standard
Tabbed By: Matt Florio; myspace.com/mattflorio2;
email: shempashland@yahoo.com
Band Site: myspace.com/themaine

Chords Used
G 320033
Cadd9 x32033
Em 022033
D xx0232

Hey please enjoy! I know you can find a video on youtube
somewhere of this song played acoustic. I know it's 100% right so don't worry.. just
and follow along. I added a few in
of the solo parts from the full version... such as the intro; which is basically the
in some parts and lead guitar part all in
I also added some of the lead parts that can be heard in random parts.
Enjoy!

Intro
* this is the keyboard part mixed with that guitar part
e--3-3-3-3-3-3-2h3-----|
b--3-3-3-3-3-3----3----|
g----------------------|
d----------------------|
a----------------------|
e----------------------|


Verse
G                             Cadd9
I picked you up and lifted your wilted frame into the sun.
Em    D         Cadd9
I was taken back, yeah I was taken back,
G                          Cadd9
And by the time I caught my breath,
                       Em        D              Cadd9
You had blossomed into something that I did not expect.

Verse Lead Part:
e---------------------|
b-------------3h5p3---|
g-2-h4--2--h4---------|
d---------------------|
a---------------------|
e---------------------|

PreChorus
D                  Cadd9
And if it takes all night,
D           Cadd9
I swear I'll wait, For you, Forever.

Chorus
G  D         Cadd9
Sunlight, sunshine, All for you my daisy.
Em            D               Cadd9
We're getting this before you leave, All for you my daisy.

Lead Part After Chorus
e-3h2p3---0---------|
b------3----3-------|
g-------------0-----|
d-------------------|
a-------------------|
e-------------------|

Verse
G                     Cadd9
You're a wreck and you know,
                                  Em
You've got me wrapped around your finger,
D
Like a boy tangled in vines,
Cadd9
But i've figured you out.

Lead Verse 2 Part(related to full version):
*played quick and few
e---0------|
b---3------|
g---4------|
d---5------|
a---5------|
e----------|

PreChorus
D            Cadd9
And now we're here, We're so confused,
D                        Cadd9
And I wish that there was some way that I could tell you.

Chorus

Bridge
* just repeat over and over
e--3-3-3-3----|
b--3-3-3-3----|
g-------------|
d-------------|
a-------------|
e-------------|

Lead Part During Bridge:
e--3-2-----------|
b------3---0h3p0-|
g----------------|
d----------------|
a----------------|
e---
All for, all for, all for you my daisy

Chorus
Suggest correction
comments
print report bad tab
7 comments total. Showing first comments.
0 reply
TBSdrummer87 188 May 27, 2008 08:20 PM

The part where you said:

*played quick and few
e---0------|
b---3------|
g---4------|
d---5------|
a---5------|
e----------|

you might want this chord instead:


e---0------|
b---3------|
g---0------|
d---4------|
a---5------|
e----------|

other then that, 5 star tab

+2 reply
mattplayscheap 2,214 Jun 04, 2008 11:07 AM

yeah thats the original chord that I had up and actually the same one that I use when I play the songs because it is easier.
two other ways to play it are:
e--3--|--3--|
b--3--|--3--|
g--0--|--4--|
d--0--|--5--|
a--2--|--5--|
e--3--|--3--|

either way thanks very much man!

+2 reply
melanyrachel 52 Jun 27, 2008 01:00 AM

thank you sososososo much for this, i've been looking everywhere for it.

guest
You may want to rate the tab now too:
select rating
Wanna post a correction for this tab? Suggest correction