Oops, an error
Loading. Please wait.

Dont Give Up On Us Chords

version 1
version 1

Whole song

14,037 views 3 this week
no commentswrite comment
1 2 3 4 5
x 6
add to favorites
launch autoscroll
font size
0
reset
transpose
0
reset
simplify chords
display chords
guitar tuner
Autoscroll
slow
fast
+/-
esc
set tempo
stop
Help us to improve Ultimate-Guitar.com Take our survey!
×
Author
Capo
4th fret
I made this tab because she loves The Maine. I know this isnt much but I'll do it 
anyways OhV, hope you could sing along with this tab :D

CHORDS:
  B       B9         F#      A9        E
|E 0|    |E x|     |E x|    |E x|    |E 0|
|B 0|    |B 0|     |B 0|    |B x|    |B 0|
|G 4|    |G 4|     |G 3|    |G x|    |G 1|
|D 4|    |D 2|     |D 4|    |D 4|    |D 2|
|A 2|    |A 4|     |A 4|    |A 6|    |A 2|
|E x|    |E x|     |E 2|    |E x|    |E 0|


CAPO 4th FRET

INTRO

e------------------------------|
B---7-4-7-4--------------------|
G---------------6h8p6h8-4h6p4h6|
D------------------------------|
A------------------------------|
E------------------------------|


e----------------------------------|
B---7-4-7s9-7-4--------------------|
G-------------------6h8p6h8-4h6p4h6|
D----------------------------------|
A----------------------------------|
E----------------------------------|



VERSE:

B
I am weakness, I'm greatness

    F#       E
I am anything you want me to be

B
I am wasted and I'll make this

    F#           E
The anthem for a dying breed


PRE CHORUS:


B
See the light in the night when you're fading away

F#                   E
Trust in us, we're all that you've got these days

B                            F#
Take a look inside my heart,

E
Oh let's get carried away


CHORUS:

B
Don't you dare,

                    F#
Don't you ever give up,

                    E
Don't you ever give up, oh no


B
Don't you dare,

                    F#
Don't you ever give up,

                    E
Don't you ever give up on us, my dear


VERSE:

B
I am selfless, I'm selfish

     F#            E
I am anything that I wanna be

B
This is violent, this is honest

         F#           E
It's the anthem for a dying breed


PRE CHORUS:

B                                                  F#
See the light in the night when you're fading away

                   E
Trust in us, we're all that you've got these days

B                            F#
Take a look inside these eyes,

E
Oh let's get carried away



CHORUS:

B
Don't you dare,

                    F#
Don't you ever give up,

                    E
Don't you ever give up, oh no


B
Don't you dare,

                    F#
Don't you ever give up,

                    E
Don't you ever give up on us, my dear


BRIDGE:

play


e---------------------------------------------------------0-------|
B-----------------------------------------0-----------------0-----|
G---------3--------------4------------------1-----------------1---|
D-----4-----4--------2-----2------------------2-------------------|
A-2-2---2-----2--4-4---4-----4--------2---------------2-----------|
E---------------------------------0-0---0---------0-0---0---------|



B          B9 A9 E
Don't give up on us

B              B9 A9 E
No, don't give up on us

B          B9 A9 E
Don't give up on us

B              B9 A9 E
No, don't give up on us


CHORUS:

B
Don't you dare,

                    F#
Don't you ever give up,

                    E
Don't you ever give up, oh no

B
Don't you dare,

                    F#
Don't you ever give up,

                    E
Don't you ever give up on us, my dear
Suggest correction
comments
print report bad tab
guest
You may want to rate the tab now too:
select rating
Wanna post a correction for this tab? Suggest correction