Oops, an error
Loading. Please wait.

Dont Stop Now Tab

version 1
version 1

Intro

Whole song

13,203 views 30 this week
no commentswrite comment
1 2 3 4 5
excellent!
x 4
add to favorites
launch autoscroll
font size
0
reset
how to read this tab
guitar tuner
Tab Pro tools
  • play this tab
  • loop segment
  • change instrument
  • show fretboard
  • metronome
Autoscroll
slow
fast
+/-
esc
set tempo
stop
Contributor
Difficulty
novice
Band: The Maine
Song: Don't Stop Now(Acoustic)

I watched a youtube video of The Maine playing this song and tabbed it
exactly how I saw them playing it. It should be 100% correct, but please let
me know if I have made a mistake. JARED PLAYS WITH A CAPO ON THE 1ST FRET AND
KENNEDY PLAYS WITH IT ON THE 3RD IN THE VIDEO, BUT THEY MUST HAVE HAD THEIR
GUITARS TUNED A HALF STEP DOWN BECAUSE IT SOUNDS PERFECT IN STANDARD TUNING
WITH NO CAPO FOR JAREDS PART AND A CAPO ON THE 2ND FRET FOR KENNEDY'S PART.
Here is the video: http://www.youtube.com/watch?v=OaAlS4-rI34

Tuning: Standard
Guitar 1: No Capo
Guitar 2: Capo 2nd Fret

Intro:
GUITAR 1
E|-0-0-0-0-0000-0-0-0-0-0000-0-0-0-0-000-0-------0-|
B|-2-3-3/5-5555-2-3-3/5-5555-2-3-3/5-555/7-----0---|
G|-----------------------------------------2-1-----|
D|-------------------------------------------2-----| x2
A|-------------------------------------------------|
E|-------------------------------------------------|

GUITAR 2
E|----3--3--3--3--3--3--3--3--|
B|----3--3--3--3--3--3--3--3--|
G|----0--0--0--0--0--0--2--2--|
D|----2--0--2--0--2--0--x--x--| x2
A|----3--2--3--2--3--2--x--x--|
E|----x--3--x--3--x--3--x--x--|

Verse:
GUITAR 1
E|--0--------0--------0----------0----|      E|-0--0--0--0--0--0--0--0-|
B|---3--2-2---3--2-2---3--2-----0-0-0-|      B|-3--2--3--2--3--2--0--0-|
G|-2--2--2--2--2--2--2--2--2--1----1--|      G|-2--2--2--2--2--2--1--1-|
D|-----------------------------2------| x2   D|-0--2--0--2--0--2--2--2-| x2
A|--------------------------2---------| then A|----0-----0-----0--2--2-|
E|------------------------------------|      E|------------------------|

GUITAR 2
E|----3--3--3--3--3--3--3--3--|
B|----3--3--3--3--3--3--3--3--|
G|----0--0--0--0--0--0--2--2--|
D|----2--0--2--0--2--0--x--x--| x4
A|----3--2--3--2--3--2--x--x--|
E|----x--3--x--3--x--3--x--x--|

Chorus
GUITAR 1
E|-0----0----2----0-----|
B|-3----2----2----0-----|
G|-2----2----2----1-----|
D|-0----2----4----2-----| x2
A|------0----4----2-----|
E|-----------2----x-----|

GUITAR 2
E|-3----3----3----3-----|
B|-3----3----3----3-----|
G|-0----0----0----2-----|
D|-2----0----2----x-----| x2
A|-3----2----2----x-----|
E|-x----3----x----x-----|

Fill
GUITAR 1
E|--------------------------------0--0s-
B|--------------------------------3--0s-
G|-4--4-2-4--4--2-4-4/6-4-2-1h2---2--1s-
D|------------------------------2-0--2s- continued
A|-----------------------------------2s-  below
E|-----------------------------------xs-

E|-0-0-0-0-0000-0-0-0-0-0000-0-0-0-0-000-0-------0-|
B|-2-3-3/5-5555-2-3-3/5-5555-2-3-3/5-555/7-----0---|
G|-----------------------------------------2-1-----|
D|-------------------------------------------2-----| 
A|-------------------------------------------------|
E|-------------------------------------------------|

GUITAR 2
E|-3----3----3s-----3--3--3--3--3--3--3--3--|
B|-3----3----3s-----3--3--3--3--3--3--3--3--|
G|-2----0----2s-----0--0--0--0--0--0--2--2--|
D|-2----2----xs-----2--0--2--0--2--0--x--x--| 
A|-0----3----xs-----3--2--3--2--3--2--x--x--|
E|-x----x----xs-----x--3--x--3--x--3--x--x--|

REPEAT Verse

REPEAT Chorus

REPEAT Fill (only play until the S's)

Solo
GUITAR 1
E|----------------------------------------------------------|
B|-----------------------------------5----5----5------------|
G|-4--4-2-4--4-2-4h6p4-4-2-1h2p1--2h4--2h4--2h4--4p2-1h2p1--|
D|------------------------------2--------------------------2| 
A|----------------------------------------------------------|
E|----------------------------------------------------------|

E|--------------------------------------------------------------|
B|-------------------------------------------------12h14p12--10-|
G|-4--4-2-4--4-2-4h6p4-4-2-1h2p1--2/4-4/6-6/9-9/12--------------|
D|------------------------------2-------------------------------| 
A|--------------------------------------------------------------|
E|--------------------------------------------------------------|

GUITAR 2
E|-3----3----3--3--3----|
B|-3----3----3--3--3----|
G|-2----0----2--0--2----|
D|-2----2----2--2--x----| 
A|-0----3----0--3--x----|
E|-x----x----x--x--x----|

Final Chorus
GUITAR 1
E|-0-0--0-0--2----0-----|      E|-0----0----2----0-----|
B|-3--3-2--2-2-2--0-0---|      B|-3----2----2----0-----|
G|-22---22---2--2-1--1--|      G|-2----2----2----1-----|
D|-0----2----44---22----| x2   D|-0----2----4----2-----| x2
A|------0----4----2-----| then A|------0----4----2-----|
E|-----------2----x-----|      E|-----------2----x-----|

GUITAR 2
E|-3----3----3----3-----|
B|-3----3----3----3-----|  The first time play only
G|-0----0----0----2-----|  a single down stroke.
D|-2----0----2----x-----| x4
A|-3----2----2----x-----|
E|-x----3----x----x-----|

REPEAT Fill

Ending
GUITAR 1
E|-0-0-0-0-0000-0-0-0-0-0000-0-0-0-0-000-0-------0-|     E|-0-0-0-0-|
B|-2-3-3/5-5555-2-3-3/5-5555-2-3-3/5-555/7-----0---|     B|-2-3-3/5~|
G|-----------------------------------------2-1-----|     G|---------|
D|-------------------------------------------2-----| x2  D|---------|
A|-------------------------------------------------|then A|---------|
E|-------------------------------------------------|     E|---------|

GUITAR 2
E|----3--3--3--3--3--3--3--3--|      E|-3~|
B|----3--3--3--3--3--3--3--3--|      B|-3~|
G|----0--0--0--0--0--0--2--2--|      G|-0~|
D|----2--0--2--0--2--0--x--x--| x2   D|-2~|
A|----3--2--3--2--3--2--x--x--| then A|-3~|
E|----x--3--x--3--x--3--x--x--|      E|-x~|

Please rate/ comment!
comments
print report bad tab
I want to post or [tab]
guest
You may want to rate the tab now too:
select rating
Please do not post tabs as comments. Select "correction" instead!