Oops, an error
Loading. Please wait.

Everything I Ask For Acoustic Tab

8,452 views 3 this week
1 commentread comment
1 2 3 4 5
excellent!
x 3
add to favorites
launch autoscroll
font size
0
reset
how to read this tab
guitar tuner
Tab Pro tools
  • play this tab
  • loop segment
  • change instrument
  • show fretboard
  • metronome
Autoscroll
slow
fast
+/-
esc
set tempo
stop
Contributor
Difficulty
intermediate
The Maine
Everything I Ask For (Acoustic)

Reference: http://www.youtube.com/watch?v=7WSVD_mxlhE

Tuning: Standard, Capo 5th fret

h - hammer on
x - muted strum
/ - slide up

-----
INTRO
-----
e|-0---0-0---x-0---0-0-0---0---x-x-|-0---0-0---x-0---0-0-0---0---x-x-|
b|-0---0-0---x-0---0-0-0---0---x-x-|-0---0-0---x-0---0-0-0---0---x-x-|
G|-4---4-4---x-4---4-4-1---1---x-x-|-4---4-4---x-4---4-4-4---4---x-x-|
D|-2---2-2---x-2---2-2-2---2---x-x-|-2---2-2---x-2---2-2-4---4---x-x-|
A|-2h4-4-4---x-0---0-0-2---2---x-x-|-2h4-4-4---x-0---0-0-2---2---x-x-|
E|-----------x---------0---0---x-x-|-----------x-----------------x-x-|

e|-0---0-0---x-0---0-0-0---0---x-x-|-0---0-0---0-0-----0-0---0-0-0-0-|
b|-0---0-0---x-0---0-0-0---0---x-x-|-0---0-0---0-0-----0-0---0-0-0-0-|
G|-4---4-4---x-4---4-4-1---1---x-x-|-4/6-6-4---2-2-----2-2---2-2-2-2-|
D|-2---2-2---x-2---2-2-2---2---x-x-|-4/6-6-4---2-2-----2-2---2-2-2-2-|
A|-2h4-4-4---x-0---0-0-2---2---x-x-|-2/4-4-2---0-0-----0-0---0-0-0-0-|
E|-----------x---------0---0---x-x-|---------------------------------|

-----
VERSE (same as intro)
-----
e|-0---0-0---x-0---0-0-0---0---x-x-|-0---0-0---x-0---0-0-0---0---x-x-|
b|-0---0-0---x-0---0-0-0---0---x-x-|-0---0-0---x-0---0-0-0---0---x-x-|
G|-4---4-4---x-4---4-4-1---1---x-x-|-4---4-4---x-4---4-4-4---4---x-x-|
D|-2---2-2---x-2---2-2-2---2---x-x-|-2---2-2---x-2---2-2-4---4---x-x-|
A|-2h4-4-4---x-0---0-0-2---2---x-x-|-2h4-4-4---x-0---0-0-2---2---x-x-|
E|-----------x---------0---0---x-x-|-----------x-----------------x-x-|
 |1.   Takes her time with...		 Love notes, reminding me    |
 |2.   Loves music, but she hates...	 Loves Prince, she's his...  |

e|-0---0-0---x-0---0-0-0---0---x-x-|-0---0-0---0-0-----0-0---0-0-0-0-|
b|-0---0-0---x-0---0-0-0---0---x-x-|-0---0-0---0-0-----0-0---0-0-0-0-|
G|-4---4-4---x-4---4-4-1---1---x-x-|-4/6-6-4---2-2-----2-2---2-2-2-2-|
D|-2---2-2---x-2---2-2-2---2---x-x-|-4/6-6-4---2-2-----2-2---2-2-2-2-|
A|-2h4-4-4---x-0---0-0-2---2---x-x-|-2/4-4-2---0-0-----0-0---0-0-0-0-|
E|-----------x---------0---0---x-x-|---------------------------------|
 |1. She wears red when she's...       I have her, but it's all I got|
 |2.   Not big on holding hands, but that's alright, cause I still.. |

e|-0---0-0---x-0---0-0-0---0---x-x-|-0---0-0---x-0---0-0-0---0---x-x-|
b|-0---0-0---x-0---0-0-0---0---x-x-|-0---0-0---x-0---0-0-0---0---x-x-|
G|-4---4-4---x-4---4-4-1---1---x-x-|-4---4-4---x-4---4-4-4---4---x-x-|
D|-2---2-2---x-2---2-2-2---2---x-x-|-2---2-2---x-2---2-2-4---4---x-x-|
A|-2h4-4-4---x-0---0-0-2---2---x-x-|-2h4-4-4---x-0---0-0-2---2---x-x-|
E|-----------x---------0---0---x-x-|-----------x-----------------x-x-|
 |1. She looks best without...	       I know it's wrong, but...     |
 |2. She keeps up on current affairs	Prada is what she wears	     |

e|-0---0-0---x-0---0-0-0---0---x-x-|-0---0-0---0-0-----0-0---0-0-0-0-|
b|-0---0-0---x-0---0-0-0---0---x-x-|-0---0-0---0-0-----0-0---0-0-0-0-|
G|-4---4-4---x-4---4-4-1---1---x-x-|-4/6-6-4---2-2-----2-2---2-2-2-2-|
D|-2---2-2---x-2---2-2-2---2---x-x-|-4/6-6-4---2-2-----2-2---2-2-2-2-|
A|-2h4-4-4---x-0---0-0-2---2---x-x-|-2/4-4-2---0-0-----0-0---0-0-0-0-|
E|-----------x---------0---0---x-x-|---------------------------------|
 |1&2  I don't know what she sees in me; but I'm happy, she's happy  |

---------
PRECHORUS
---------
e|-0-------0---0-0-0---0-0---0-0---|-0-0---0---0-0-0-0-0-0-0-0-0-0---|
b|-0-------0---0-0-0---0-0---0-0---|-0-0---0---0-0-0-0-0-0-0-0-0-0---|
G|-4-------4---4-4-4/6-6-6---2-2---|-2-2---2---2-2-2-2-2-2-2-2-2-2---|
D|-4-------4---4-4-4/6-6-6---2-2---|-2-2---2---2-2-2-2-2-2-2-2-2-2---|
A|-2-------2---2-2-2/4-4-4---0-0---|-0-0---0---0-0-0-0-0-0-0-0-0-0---|
E|---------------------------------|---------------------------------|
  now;			 and she's with me	and I'm freaking

e|-0-------0---0-0-0---0-0---0-0---|
b|-0-------0---0-0-0---0-0---0-0---|
G|-4-------4---4-4-4/6-6-6---2-2---|
D|-4-------4---4-4-4/6-6-6---2-2---|
A|-2-------2---2-2-2/4-4-4---0-0---|
E|---------------------------------|
  out	because I'm just so lucky oh she

------
CHORUS
------
e|-0---0---x---x-x-0---0---x---x-x-x-x-0---0---x-x-0---0---x-x-x-x-|
b|-0---0---x---x-x-0---0---x---x-x-x-x-0---0---x-x-0---0---x-x-x-x-|
G|-1---1---x---x-x-2---2---x---x-x-x-x-4---4---x-x-4---4---x-x-x-x-|
D|-2---2---x---x-x-2---2---x---x-x-x-x-4---4---x-x-4---4---x-x-x-x-|
A|-2---2---x---x-x-0---0---x---x-x-x-x-2---2---x-x-2---2---x-x-x-x-|
E|-0---0---x---x-x---------x---x-x-x-x---------x-x---------x-x-x-x-|
   makes   me  feel    like    shit			   but I 

e|-0---0---x---x-x-0---0---x---x-x-x-x-0---0---x-x-0---0---x-x-x-x-|
b|-0---0---x---x-x-0---0---x---x-x-x-x-0---0---x-x-0---0---x-x-x-x-|
G|-1---1---x---x-x-2---2---x---x-x-x-x-4---4---x-x-4---4---x-x-x-x-|
D|-2---2---x---x-x-2---2---x---x-x-x-x-4---4---x-x-4---4---x-x-x-x-|
A|-2---2---x---x-x-0---0---x---x-x-x-x-2---2---x-x-2---2---x-x-x-x-|
E|-0---0---x---x-x---------x---x-x-x-x---------x-x---------x-x-x-x-|
   can't   get over	       it			   cause she's

e|-0---0---0---0-0-0---0---0---0-0-0---0---0---0-0-0---0---0---0-0-|
b|-0---0---0---0-0-0---0---0---0-0-0---0---0---0-0-0---0---0---0-0-|
G|-6---6---6---6-4-4---4---4---4-4-4---4---4---4-4-4---4---4---4-4-|
D|-6---6---6---6-2-2---2---2---2-4-4---4---4---4-4-4---4---4---4-4-|
A|-4---4---4---4-0-0---0---0---0-2-2---2---2---2-2-2---2---2---2-2-|
E|-----------------------------------------------------------------|
  everything I ask for, everything I ask for, and just a little bit more

e|-0---0---0---0-0-0---0---0---0-0-0---0---0---0-0-0---------------|
b|-0---0---0---0-0-0---0---0---0-0-0---0---0---0-0-0---------------|
G|-6---6---6---6-4-4---4---4---4-4-4---4---4---4-4-4---------------|
D|-6---6---6---6-2-2---2---2---2-4-4---4---4---4-4-4---------------|
A|-4---4---4---4-0-0---0---0---0-2-2---2---2---2-2-2---------------|
E|-----------------------------------------------------------------|
  everything I ask for, everything I ask for, and so much more

INTRO
VERSE
PRECHORUS
CHORUS

------
BRIDGE
------
e|-----------x-----------x-------x-0-0-0-0-0-x-0-0-0-0-0-x-0-0-0-x-|
b|-4-4-4-4-4-x-5-5-5-5-5-x-5-5-5-x-0-0-0-0-0-x-0-0-0-0-0-x-0-0-0-x-|
G|-4-4-4-4-4-x-6-6-6-6-6-x-6-6-6-x-2-2-2-2-2-x-1-1-1-1-1-x-1-1-1-x-|
D|-4-4-4-4-4-x-6-6-6-6-6-x-6-6-6-x-2-2-2-2-2-x-2-2-2-2-2-x-2-2-2-x-|
A|-2-2-2-2-2-x-4-4-4-4-4-x-4-4-4-x-0-0-0-0-0-x-2-2-2-2-2-x-2-2-2-x-|
E|-----------x-----------x-------x-----------x-0-0-0-0-0-x-0-0-0-x-|
   Fist fights turn into sex	   I wonder what comes next

e|-----------x-----------x-------x-0-0-0-0-x-x-0-0-0-0-x-x-0-0-0-0-|
b|-4-4-4-4-4-x-5-5-5-5-5-x-5-5-5-x-0-0-0-0-x-x-0-0-0-0-x-x-0-0-0-0-|
G|-4-4-4-4-4-x-6-6-6-6-6-x-6-6-6-x-2-2-2-2-x-x-2-2-2-2-x-x-2-2-2-2-|
D|-4-4-4-4-4-x-6-6-6-6-6-x-6-6-6-x-2-2-2-2-x-x-2-2-2-2-x-x-2-2-2-2-|
A|-2-2-2-2-2-x-4-4-4-4-4-x-4-4-4-x-0-0-0-0-x-x-0-0-0-0-x-x-0-0-0-0-|
E|-----------x-----------x-------x---------------------------------|
   She loves to always keep me guessing

e|-----------x-----------x-------x-0-0-0-0-0-x-0-0-0-0-0-x-0-0-0-x-|
b|-4-4-4-4-4-x-5-5-5-5-5-x-5-5-5-x-0-0-0-0-0-x-0-0-0-0-0-x-0-0-0-x-|
G|-4-4-4-4-4-x-6-6-6-6-6-x-6-6-6-x-2-2-2-2-2-x-1-1-1-1-1-x-1-1-1-x-|
D|-4-4-4-4-4-x-6-6-6-6-6-x-6-6-6-x-2-2-2-2-2-x-2-2-2-2-2-x-2-2-2-x-|
A|-2-2-2-2-2-x-4-4-4-4-4-x-4-4-4-x-0-0-0-0-0-x-2-2-2-2-2-x-2-2-2-x-|
E|-----------x-----------x-------x-----------x-0-0-0-0-0-x-0-0-0-x-|
   She		 won't		   give it up			and

e|-----------x-----------x-------x-0---0---0---0-0-0---0---0---0-0-|
b|-4-4-4-4-4-x-5-5-5-5-5-x-5-5-5-x-0---0---0---0-0-0---0---0---0-0-|
G|-4-4-4-4-4-x-6-6-6-6-6-x-6-6-6-x-2---2---2---2-2-2---2---2---2-2-|
D|-4-4-4-4-4-x-6-6-6-6-6-x-6-6-6-x-2---2---2---2-2-2---2---2---2-2-|
A|-2-2-2-2-2-x-4-4-4-4-4-x-4-4-4-x-0---0---0---0-0-0---0---0---0-0-|
E|-----------x-----------x-------x---------------------------------|
   we          both                know               it's because

e|-0---0---0---0---0---0---0-0-0-0-|
b|-0---0---0---0---0---0---0-0-0-0-|
G|-4---4---4---4---4---4---4-4-4-4-|
D|-4---4---4---4---4---4---4-4-4-4-|
A|-2---2---2---2---2---2---2-2-2-2-|
E|---------------------------------|
			   oh she

CHORUS
comments
We did not receive enough feedback on this tab! Please rate:
print report bad tab
1 2 3 4 5
1 comment total.
+1 reply
nickplay5guitar wrote on November 7 2010, 01:23 am

Spot on dude, sounds great :)

I want to post or [tab]
guest
You may want to rate the tab now too:
select rating
Please do not post tabs as comments. Select "correction" instead!