Oops, an error
Loading. Please wait.

Everything I Ask For Bass Tab

9,942 views 1 this week
no commentswrite comment
1 2 3 4 5
accurate
x 3
add to favorites
launch autoscroll
font size
0
reset
guitar tuner
Autoscroll
slow
fast
+/-
esc
set tempo
stop
Help us to improve Ultimate-Guitar.com Take our survey!
×
Author
I pretty much just watched monzingo's cover of this song, and got most of the tabs 
from there, so props to him.

here's the video, if you want to watch it.
http://www.youtube.com/watch?v=2E_Rbbzszms


Verse
G|------------------------------------------------|	x2
D|------------------------------------------------|
A|-7h9-999-5-----99999-5-77--99999-5-----9-7-5~---|
E|-----------55----------------------55-----------|

Pre-Chorus
G|-----------------------------------|
D|-----------------------------------|
A|-777777-9--55555555--777777-9--5---|
E|-----------------------------------|

Chorus
G|-----------------|	x2
D|-----------------|
A|---------77-7777-|
E|-55-1010---------|

G|--------------------------|
D|--------------------------|
A|-99-55-77-77—-99-55-77777-|
E|--------------------------|

Verse
G|------------------------------------------------|
D|------------------------------------------------|
A|-7h9-999-5-----99999-5-77--99999-5-----9-7-5~---|
E|-----------55----------------------55-----------|

G|-----------------------------------------|
D|-----------------------------------------|
A|-7h9-999-5-----9-77--99999-5----9-7-5~---|
E|-----------55----------------55----------|

Pre-Chorus
G|-----------------------------------|
D|-----------------------------------|
A|-777777-9--55555555--777777-9--5---|
E|-----------------------------------|

Chorus
G|-----------------|	x2
D|-----------------|
A|---------77-7777-|
E|-55-1010---------|

G|--------------------------|
D|--------------------------|
A|-99-55-77-77—-99-55-77777-|
E|--------------------------|

Post-Chorus
G|------------------------------------|
D|------------------------------------|
A|-777-999-555------777-999-555555555-|
E|-------------555--------------------|

G|---------------------------------------------|
D|---------------------------------------------|
A|-777-999-555------777-999-5555555555-7777777-|
E|-------------555-----------------------------|

Chorus
G|----------|
D|----------|
A|--77-7777-|
E|----------|

G|-----------------|
D|-----------------|
A|---------77-7777-|
E|-55-1010---------|

Outro
G|--------------------|	x3
D|--------------------|
A|-9999-5555-77777777-|
E|--------------------|

G|-------------|
D|-------------|
A|-99-55-77777-|
E|-------------|
Suggest correction
Give kudos to tab author, rate the tab!
1 2 3 4 5
comments
print report bad tab
guest
You may want to rate the tab now too:
select rating
Wanna post a correction for this tab? Suggest correction