Oops, an error
Loading. Please wait.

Everything I Ask For Tab

version 2
version 2

Whole song

14,656 views 1 this week
no commentswrite comment
1 2 3 4 5
please rate
add to favorites
launch autoscroll
font size
0
reset
how to read this tab
guitar tuner
Autoscroll
slow
fast
+/-
esc
set tempo
stop
Help us to improve Ultimate-Guitar.com Take our survey!
×
Author
Capo
5th fret
Alright so the most difficult part of this song is the strumming pattern, but the 
chords used are simple. fun song to play. have fun!

I'll soon post a video on youtube how to play it.

Capo 5th Fret
Standard Tuning

Intro/Verse
e-----------------------------------------------------------|
G-----------------------------------------------------------|
B---4/-6-6-6-x--1-1-1-1---4/-6-6-6-x--2-2-2-2---------------|
D---4/-6-6-6-x--2-2-2-2---4/-6-6-6-x--2-2-2-2---------------|
A---2/-4-4-4-x--2-2-2-2---2/-4-4-4-x--0-0-0-0---------------|
E---------------0-0-0-0-------------------------------------|

e-----------------------------------------------------------|
G-----------------------------------------------------------|
B---4/-6-6-6-x--1-1-1-1---4/-6-6-6-x--2-2-2-2-2-2-2-2-------|
D---4/-6-6-6-x--2-2-2-2---4/-6-6-6-x--2-2-2-2-2-2-2-2-------|
A---2/-4-4-4-x--2-2-2-2---2/-4-4-4-x--0-0-0-0-0-0-0-0-------|
E---------------0-0-0-0-------------------------------------|

Pre-Chorus
e--------------------------------------------------|
G--------------------------------------------------|
B--4-4-4-4-4-4-4-4/-6--2-2-2-2-2-2-2-2-------------|
D--4-4-4-4-4-4-4-4/-6--2-2-2-2-2-2-2-2-------------|
A--2-2-2-2-2-2-2-2/-4--0-0-0-0-0-0-0-0-------------|
E--------------------------------------------------|

e-----------------------------------|
G-----------------------------------|
B--4-4-4-4-4-4-4-4/-6--2~-----------|
D--4-4-4-4-4-4-4-4/-6--2~-----------|
A--2-2-2-2-2-2-2-2/-4--0~-----------|
E-----------------------------------|

Chorus

e---------------------------------------------------------------|
G---------------------------------------------------------------|
B--1-1-x-1-1--4-4-x-4-4--1-1-x-1-1--4-4-x-4-4---6-6-6-6-6-6-6-6-|
D--2-2-x-2-2--4-4-x-4-4--2-2-x-2-2--4-4-x-4-4---6-6-6-6-6-6-6-6-|
A--2-2-x-2-2--2-2-x-2-2--2-2-x-2-2--2-2-x-2-2---4-4-4-4-4-4-4-4-|
E--0-0-x-0-0-------------0-0-x-0-0------------------------------|


e---------------------------------------------------------------|
G---------------------------------------------------------------|
B----4-------6--------4-----------------------------------------|
D----4--X8---6--X16---4--X8-------------------------------------|
A----2-------4--------2-----------------------------------------|
E---------------------------------------------------------------|

Verse

e-----------------------------------------------------------|
G-----------------------------------------------------------|
B---4/-6-6-6-x--1-1-1-1---4/-6-6-6-x--2-2-2-2---------------|
D---4/-6-6-6-x--2-2-2-2---4/-6-6-6-x--2-2-2-2---------------|
A---2/-4-4-4-x--2-2-2-2---2/-4-4-4-x--0-0-0-0---------------|
E---------------0-0-0-0-------------------------------------|

e-----------------------------------------------------------|
G-----------------------------------------------------------|
B---4/-6-6-6-x--1-1-1-1---4/-6-6-6-x--2-2-2-2-2-2-2-2-------|
D---4/-6-6-6-x--2-2-2-2---4/-6-6-6-x--2-2-2-2-2-2-2-2-------|
A---2/-4-4-4-x--2-2-2-2---2/-4-4-4-x--0-0-0-0-0-0-0-0-------|
E---------------0-0-0-0-------------------------------------|

Pre-Chorus

e--------------------------------------------------|
G--------------------------------------------------|
B--4-4-4-4-4-4-4-4/-6--2-2-2-2-2-2-2-2-------------|
D--4-4-4-4-4-4-4-4/-6--2-2-2-2-2-2-2-2-------------|
A--2-2-2-2-2-2-2-2/-4--0-0-0-0-0-0-0-0-------------|
E--------------------------------------------------|

e-----------------------------------|
G-----------------------------------|
B--4-4-4-4-4-4-4-4/-6--2~-----------|
D--4-4-4-4-4-4-4-4/-6--2~-----------|
A--2-2-2-2-2-2-2-2/-4--0~-----------|
E-----------------------------------|

Chorus

e---------------------------------------------------------------|
G---------------------------------------------------------------|
B--1-1-x-1-1--4-4-x-4-4--1-1-x-1-1--4-4-x-4-4---6-6-6-6-6-6-6-6-|
D--2-2-x-2-2--4-4-x-4-4--2-2-x-2-2--4-4-x-4-4---6-6-6-6-6-6-6-6-|
A--2-2-x-2-2--2-2-x-2-2--2-2-x-2-2--2-2-x-2-2---4-4-4-4-4-4-4-4-|
E--0-0-x-0-0-------------0-0-x-0-0------------------------------|


e---------------------------------------------------------------|
G---------------------------------------------------------------|
B----4---------4--------4---------------------------------------|
D----4--X4-----4--X4----4--X4-----------------------------------|
A----2---------2--------2---------------------------------------|
E---------------------------------------------------------------|

Solo

e------------------------------------------------|
B--4-4-4-4-4-4-5-5-5-5-5-5-5-5-------------------|
G--2-2-2-2-2-2-2-2-2-2-2-2-2-2-------------------|  (repeat this a couple
D------------------------------------------------|   times with fast picking)
A------------------------------------------------|
E------------------------------------------------|

Chorus

e-------------------------------------------------------|
G-------------------------------------------------------|
B--1-1-x-1-1--4-4-x-4-4--1-1-x-1-1--4-4-x-4-4---6-6-6-6-|
D--2-2-x-2-2--4-4-x-4-4--2-2-x-2-2--4-4-x-4-4---6-6-6-6-|
A--2-2-x-2-2--2-2-x-2-2--2-2-x-2-2--2-2-x-2-2---4-4-4-4-|
E--0-0-x-0-0-------------0-0-x-0-0----------------------|


e-----------------------------------------------------------------|
G-----------------------------------------------------------------|
B----4---------4--------4-----------1~----------------------------|
D----4--X4-----4--X4----4--X4-------2~----------------------------|
A----2---------2--------2-----------2~----------------------------|
E-----------------------------------0~----------------------------|

Suggest correction
Give kudos to tab author, rate the tab!
1 2 3 4 5
comments
print report bad tab
guest
You may want to rate the tab now too:
select rating
Please do not post tabs as comments. Select "correction" instead!