Oops, an error
Loading. Please wait.

Everything I Ask For Tab

version 4
version 4

Whole song

47,734 views 18 this week
5 commentsread comments
1 2 3 4 5
excellent!
x 10
add to favorites
launch autoscroll
font size
0
reset
how to read this tab
guitar tuner
Tab Pro tools
  • play this tab
  • loop segment
  • change instrument
  • show fretboard
  • metronome
Autoscroll
slow
fast
+/-
esc
set tempo
stop
Contributor
-------------------------------------------------------------------------------
                             Everything I Ask For - The Maine
-------------------------------------------------------------------------------
Tabbed by: Daniel Chevalier

Capo on 5th

Tuning:EADGBE

Verse:
e|-----0/00-0-00---0/00-0-00---0/00-0-00---0/0-0-0------------------------|
B|-----0/00-0-00---0/00-0-00---0/00-0-00---0/0-0-0------------------------|
G|-----4/66-2-11---4/66-2-44---4/66-2-11---4/6-4-2------------------------|  x2
D|-----4/66-2-22---4/66-2-44---4/66-2-22---4/6-4-2------------------------|
A|-----2/44-0-22---2/44-0-22---2/44-0-22---2/4-2-0------------------------|
E|------------00----------------------------------------------------------|

Prechorus:
e|-----00--0/00-00--0--0--00--0/00-0--------------------------------------|
B|-----0-0-0/00-0-0--0----0-0-0/00-0--------------------------------------|
G|-----4--04/66-2--0--0---4--04/66-2--------------------------------------|  
D|-----4---4/66-2---------4---4/66-2--------------------------------------|
A|-----2---2/44-0---------2---2/44-0--------------------------------------|
E|------------------------------------------------------------------------|

Chorus:
e|----00-00-00xx00xx0---00-00-00--00--0--00-0-00-0-00000---00-0-00-0-00000|
B|----00-00-00xx00xx0---00-00-00--00--0--00--000--000000---00--000--000000|
G|----11-22-44xx44xx4---11-22-44xx44xx4--66---22---44444---66---22---44444|
D|----22-22-44xx44xx4---22-22-44xx44xx4--66---22---44444---66---22---44444|
A|----22-00-22xx22xx2---22-00-22xx22xx2--44---00---22222---44---00---22222|
E|----00----------------00------------------------------------------------|

Verse:
e|-----0/00-0-00---0/00-0-00---0/00-0-00---0/0-0-0------------------------|
B|-----0/00-0-00---0/00-0-00---0/00-0-00---0/0-0-0------------------------|
G|-----4/66-2-11---4/66-2-44---4/66-2-11---4/6-4-2------------------------|  
D|-----4/66-2-11---4/66-2-44---4/66-2-22---4/6-4-2------------------------|
A|-----2/44-0-22---2/44-0-22---2/44-0-22---2/4-2-0------------------------|
E|------------00----------------------------------------------------------|

Verse Part2:
e|-----0/00-0-00---0x-----00---0/00-0-00---0/0-0-0------------------------|
B|-----0/00-0-00---0x-----00---0/00-0-00---0/0-0-0------------------------|
G|-----4/66-2-11---4x-----44---4/66-2-11---4/6-4-2------------------------|  
D|-----4/66-2-11---4x-----44---4/66-2-22---4/6-4-2------------------------|
A|-----2/44-0-22---2x-----22---2/44-0-22---2/4-2-0------------------------|
E|------------00----------------------------------------------------------|

Prechorus:
e|-----00--0/00-00--0--0--00--0/00-0--------------------------------------|
B|-----0-0-0/00-0-0--0----0-0-0/00-0--------------------------------------|
G|-----4--04/66-2--0--0---4--04/66-2--------------------------------------|  
D|-----4---4/66-2---------4---4/66-2--------------------------------------|
A|-----2---2/44-0---------2---2/44-0--------------------------------------|
E|------------------------------------------------------------------------|

Chorus:
e|----00-00-00xx00xx0---00-00-00--00--0--00-0-00-0-00000---00-0-00-0-00000|
B|----00-00-00xx00xx0---00-00-00--00--0--00--000--000000---00--000--000000|
G|----11-22-44xx44xx4---11-22-44xx44xx4--66---22---44444---66---22---44444|
D|----22-22-44xx44xx4---22-22-44xx44xx4--66---22---44444---66---22---44444|
A|----22-00-22xx22xx2---22-00-22xx22xx2--44---00---22222---44---00---22222|
E|----00----------------00------------------------------------------------|

Bridge:
e|---00000-000000-00000-000000--------------------------------------------|
B|---00000-000000-00000-000000--------------------------------------------|
G|---44444-666666-22222-111111--------------------------------------------|  x3
D|---44444-666666-22222-222222--------------------------------------------|
A|---22222-444444-00000-222222--------------------------------------------|
E|----------------------000000--------------------------------------------|

e|---00000-000000-00000000-00000000---------------------------------------|
B|---00000-000000-00000000-00000000---------------------------------------|
G|---44444-666666-22222222-44444444---------------------------------------|
D|---44444-666666-22222222-44444444---------------------------------------|
A|---22222-444444-00000000-22222222---------------------------------------|
E|------------------------------------------------------------------------|

Chorus:
e|----------00xx00xx0---00-00-00--00--0--00-0-00-0-00000-00-0-00-0-00000--|
B|----------00xx00xx0---00-00-00--00--0--00--000--000000-00--000--000000--|
G|----------44xx44xx4---11-22-44xx44xx4--66---22---44444-66---22---44444--|
D|----------44xx44xx4---22-22-44xx44xx4--66---22---44444-66---22---44444--|
A|----------22xx22xx2---22-00-22xx22xx2--44---00---22222-44---00---22222--|
E|----------------------00------------------------------------------------|


e|---00-0-00-0-00000-00-0-00-0-00000--------------------------------------|
B|---00--000--000000-00--000--000000--------------------------------------|
G|---66---22---44444-66---22---44444--------------------------------------|
D|---64---22---44444-66---22---44444--------------------------------------|
A|---44---00---22222-44---00---22222--------------------------------------|
E|------------------------------------------------------------------------|


| /  slide up
| \  slide down
| h  hammer-on
| p  pull-off
| ~  vibrato
| +  harmonic
| x  Mute note
===============================================================================


comments
print report bad tab
5 comments total. Showing first comments.
0 reply
dennislosch wrote on July 20 2009, 11:47 am

best tab

-1 reply
nevershoutjenny wrote on August 7 2009, 07:04 pm

sounds better with capo on 3rd

+1 reply
k00ks wrote on September 5 2009, 04:42 pm

nevershoutjenny:
Watch their acoustic performance and Teen magazine
http://www.youtube.com/watch?v=uOMr5qzlbc8
he's playing on a capo 5.

I want to post or [tab]
guest
You may want to rate the tab now too:
select rating
Please do not post tabs as comments. Select "correction" instead!