Oops, an error
Loading. Please wait.

Everything I Ask For Tab

version 5
version 5

Whole song

8,940 views 1 this week
no commentswrite comment
1 2 3 4 5
please rate
add to favorites
launch autoscroll
font size
0
reset
how to read this tab
guitar tuner
Tab Pro tools
  • play this tab
  • loop segment
  • change instrument
  • show fretboard
  • metronome
×
Best way to learn
"Everything I Ask For"
Autoscroll
slow
fast
+/-
esc
set tempo
stop
Contributor
Everything I Ask For by The Maine
It sounds pretty dead on but it's mostly
one guitar, I can't make out the 2nd guitar
except for the tiny fill at the end. enjoy.
June 25, 2009

Intro:

e|--------------------------------------------------|
B|--------------------------------------------------|
G|--------------------------------------------------|
D|-9-/-11-X-X-X-X-7-----------9-/-11-X-X-X-X-7--9-9-|
A|-7-/-9--X-X-X-X-5--7-7------7-/-9--X-X-X-X-5--7-7-|
E|-------------------5-5----------------------------|

e|--------------------------------------------------|
B|--------------------------------------------------|
G|--------------------------------------------------|
D|-9-/-11-X-X-X-X-7-----------9-/-11-X-X-X-X-7~-----|
A|-7-/-9--X-X-X-X-5--7-7------7-/-9--X-X-X-X-5~-----|
E|-------------------5-5----------------------------|

Verse:

(She takes her...)
e|--------------------------------------------------|
B|--------------------------------------------------|
G|-9-/-11-X-X-X-\-7-----------9-/-11-X-X-X-\-7--9-9-|
D|-9-/-11-X-X-X-\-7--7-7------9-/-11-X-X-X-\-7--9-9-|
A|-7-/-9--X-X-X-\-5--7-7------7-/-9--X-X-X-\-5--7-7-|
E|-------------------5-5----------------------------|

(...but I'm happy)
e|--------------------------------------------------|
B|--------------------------------------------------|
G|-9-/-11-X-X-X-\-7-----------9-/-11-X-X-X-\-7--7-7-|
D|-9-/-11-X-X-X-\-7--7-7------9-/-11-X-X-X-\-7--7-7-| (X2)
A|-7-/-9--X-X-X-\-5--7-7------7-/-9--X-X-X-\-5--5-5-|
E|-------------------5-5----------------------------|

Pre-chorus:

(She's happy now...lucky)
e|-------------------------------------------|
B|-------------------------------------------|
G|-9-9-9-/-11---7~--7-7-7----9-9-9-/-11---7~-|
D|-9-9-9-/-11---7~--7-7-7----9-9-9-/-11---7~-|
A|-7-7-7-/-9----5~--5-5-5----7-7-7-/-9----5~-|
E|-------------------------------------------|

Chorus:

(She makes me...)
e|--------------------------------------------|
B|--------------------------------------------|
G|-----------7-7------9-9-X-X-X-X-9-9-X-X-X-X-|
D|-7-7-------7-7------9-9-X-X-X-X-9-9-X-X-X-X-| (x3)
A|-7-7-------5-5------7-7-X-X-X-X-7-7-X-X-X-X-|
E|-5-5----------------------------------------|

(Much more)
e|------------------------------|
B|------------------------------|
G|-----------7-7------9-9-9-9-9-|
D|-7-7-------7-7------9-9-9-9-9-| (x1)
A|-7-7-------5-5------7-7-7-7-7-|
E|-5-5--------------------------|

Verse:

(She loves...)     Don't play THIS vvvvv the 2nd time
e|---------------------------|------------------|-----|
B|---------------------------|------------------|-----|
G|-9-/-11-X-X-X-\-7----------|-9-/-11-X-X-X-\-7-|-9-9-|
D|-9-/-11-X-X-X-\-7--7-7-----|-9-/-11-X-X-X-\-7-|-9-9-|
A|-7-/-9--X-X-X-\-5--7-7-----|-7-/-9--X-X-X-\-5-|-7-7-|
E|-------------------5-5-----|------------------|-----|

(...but I'm happy)
e|--------------------------------------------------|
B|--------------------------------------------------|
G|-9-/-11-X-X-X-\-7-----------9-/-11-X-X-X-\-7--7-7-|
D|-9-/-11-X-X-X-\-7--7-7------9-/-11-X-X-X-\-7--7-7-| (X2)
A|-7-/-9--X-X-X-\-5--7-7------7-/-9--X-X-X-\-5--5-5-|
E|-------------------5-5----------------------------|

Pre-chorus:

(She's happy now...lucky)
e|-------------------------------------------|
B|-------------------------------------------|
G|-9-9-9-/-11---7~--7-7-7----9-9-9-/-11---7~-|
D|-9-9-9-/-11---7~--7-7-7----9-9-9-/-11---7~-|
A|-7-7-7-/-9----5~--5-5-5----7-7-7-/-9----5~-|
E|-------------------------------------------|

Chorus:

(She makes me...)
e|--------------------------------------------|
B|--------------------------------------------|
G|-----------7-7------9-9-X-X-X-X-9-9-X-X-X-X-|
D|-7-7-------7-7------9-9-X-X-X-X-9-9-X-X-X-X-| (x3)
A|-7-7-------5-5------7-7-X-X-X-X-7-7-X-X-X-X-|
E|-5-5----------------------------------------|

(Much more)
e|------------------------------|
B|------------------------------|
G|-----------7-7------9-9-9-9-9-|
D|-7-7-------7-7------9-9-9-9-9-| (x1)
A|-7-7-------5-5------7-7-7-7-7-|
E|-5-5--------------------------|

Interlude:

(Fist fights...)
e|--------------------------------------------------|
B|--------------------------------------------------|
G|-9-/-11-X-X-X-\-7-----------9-/-11-X-X-X-\-7--9-9-|
D|-9-/-11-X-X-X-\-7--7-7------9-/-11-X-X-X-\-7--9-9-|
A|-7-/-9--X-X-X-\-5--7-7------7-/-9--X-X-X-\-5--7-7-|
E|-------------------5-5----------------------------|

(...because)
e|--------------------------------------------------|
B|--------------------------------------------------|
G|-9-/-11-X-X-X-\-7-----------9-/-11-X-X-X-\-7--7-7-|
D|-9-/-11-X-X-X-\-7--7-7------9-/-11-X-X-X-\-7--7-7-| (X2)
A|-7-/-9--X-X-X-\-5--7-7------7-/-9--X-X-X-\-5--5-5-|
E|-------------------5-5----------------------------|

Chorus:

(She makes me...)
e|-----------|
B|-----------|
G|-9-9---9-9-|
D|-9-9---9-9-|
A|-7-7---7-7-|
E|-----------|


(But I can't)
e|--------------------------------------------|
B|--------------------------------------------|
G|-----------7-7------9-9-X-X-X-X-9-9-X-X-X-X-|
D|-7-7-------7-7------9-9-X-X-X-X-9-9-X-X-X-X-| (x1)
A|-7-7-------5-5------7-7-X-X-X-X-7-7-X-X-X-X-|
E|-5-5----------------------------------------|

(Cause she's...)
e|-----------------------------------|
B|-----------------------------------|
G|----------7-7-7-7--9-9-9-9-9-9-9-9-|
D|-7-7-7-7--7-7-7-7--9-9-9-9-9-9-9-9-| (x3)
A|-7-7-7-7--5-5-5-5--7-7-7-7-7-7-7-7-|
E|-5-5-5-5---------------------------|

The little fill near the end
e|------------------------------------------------|
B|----14--12------12--14------14-12------14-12----|
G|------------14--------------------14---------14-|
D|-16---------------------------------------------|
A|------------------------------------------------|
E|------------------------------------------------|

(Much more)
e|------------------------------|
B|------------------------------|
G|-----------7-7------9-9-9-9-9-|
D|-7-7-------7-7------9-9-9-9-9-| (x1)
A|-7-7-------5-5------7-7-7-7-7-|
E|-5-5--------------------------|
comments
We did not receive enough feedback on this tab! Please rate:
print report bad tab
1 2 3 4 5
I want to post or [tab]
guest
You may want to rate the tab now too:
select rating
Please do not post tabs as comments. Select "correction" instead!