Oops, an error
Loading. Please wait.

Fcked Up Kids Chords

713 views 3 this week
no commentswrite comment
1 2 3 4 5
2 more votes to show rating
add to favorites
launch autoscroll
font size
0
reset
transpose
0
reset
display chords
guitar tuner
Autoscroll
slow
fast
+/-
esc
set tempo
stop
Help us to improve Ultimate-Guitar.com Take our survey!
×
Author
Difficulty
novice
Combined the chords and tab of the song already uploaded!
Added and changed a few stuff. 
Also, I can't figure the second solo out, but the chords are there.

Intro: A

A
There's a crowd inside, free in spirit
Nothing dazzling in appearance
We do the best with, with what we have
No, no, no

A
We aren't models, we aren't actors
We are those who sit up in the rafters
After all, that's where
You will find the action

D C#m A Bm E

A              C#m
 We're searching for something
D            F#m        E
 Just trying to make it happen
A         C#m
 We listen to no one
D      C#m F#m          A  E
 Don't forget, we won't forgive
D                   E  A            Bm E
 They'll write a story of the lives we lived

e |------------------------------------|
B |----10-9---------------10-9-12-10-9-|
G |-----------------9------------------|         Or
D |-11------11-9-11----11--------------|      F#m D A E
A |------------------------------------|
E |------------------------------------|

Fucked up kids

e |------------------------------------|
B |----10-9----------------------------|
G |-----------------9------------------|         Or
D |-11------11-9-11---9-9-9-7-11-6-----|      F#m D A E
A |------------------------------------|
E |------------------------------------|

              F#m               D
And there's a place for you and all my friends
         A                     E 
When the sun falls down, a new day begins
      F#m         D          A            E
Where feeling good is good enough (good enough)

       F#m             D
Take a left on College Avenue
    A                          E
And call your friends they can all come too
        F#m                  D
They'll write a story of the lives we lived
A   E
Me, you

A              C#m
 We're searching for something
D            F#m        E
 Just trying to make it happen
A         C#m
 We listen to no one
D      C#m F#m          A  E
 Don't forget, we won't forgive
D                   E  A            Bm E
 They'll write a story of the lives we lived

e |------------------------------------|
B |----10-9---------------10-9-12-10-9-|
G |-----------------9------------------|         Or
D |-11------11-9-11----11--------------|      F#m D A E
A |------------------------------------|
E |------------------------------------|

Fucked up kids

e |------------------------------------|
B |----10-9----------------------------|
G |-----------------9------------------|         Or
D |-11------11-9-11---9-9-9-7-11-6-----|      F#m D A E
A |------------------------------------|
E |------------------------------------|

F#m D A E (x2)

D C#m A Bm E

      A                 C#m
I am alone, but I'm not lonely
F#m              E               
No, it's nothing personal
     D                A      E
I prefer to do things on my own
         A             C#m
And even though nobody knows me
F#m        E        D
No, I'm not lonely, no
    A             E
I'm raw, and invincible

        A                   C#m
We are alone, but we're not lonely
F#m              E
No, it's nothing personal
      D                A      E
We prefer to do things on our own
         A             C#m
And even though nobody knows it
F#m           E       D
No, we're not lonely, no
      A             E
We're raw, and invincible

        A                   C#m
We are alone, but we're not lonely
F#m              E
No, it's nothing personal
      D                A      E
We prefer to do things on our own
         A             C#m
And even though nobody knows it
F#m           E       D
No, we're not lonely, no
      A             E
We're raw, and invincible

        A                   C#m
We are alone, but we're not lonely
F#m              E
No, it's nothing personal
      D                A      E
We prefer to do things on our own
         A             C#m
And even though nobody knows it
F#m           E       D
No, we're not lonely, no
      A             E
We're raw, and invincible
Suggest correction
Give kudos to tab author, rate the tab!
1 2 3 4 5
comments
print report bad tab
guest
You may want to rate the tab now too:
select rating
Wanna post a correction for this tab? Suggest correction