Oops, an error
Loading. Please wait.

Fuel To The Fire Tab

2,028 views 3 this week
no commentswrite comment
1 2 3 4 5
accurate
x 1
add to favorites
launch autoscroll
font size
0
reset
how to read this tab
guitar tuner
Tab Pro tools
  • play this tab
  • loop segment
  • change instrument
  • show fretboard
  • metronome
Autoscroll
slow
fast
+/-
esc
set tempo
stop
Contributor
Difficulty
novice
Hi im tarek :) adding my first song from the maine fuel to the fire
hope u like it! 

Intro

1st guitar
e|--------------------------------------------------------------|
B|-----/8-88-7--7---5~-----7-----------/88-7--7---5~------------|
G|----------------8------8-----h8---------------8----3/5/3/1----|
D|--------------------------------------------------------------|
A|--------------------------------------------------------------|
E|--------------------------------------------------------------|

2nd guitar 
e|-----6-6-6--3-3-3--3-3-3--6-6-6--------|x2
B|-----8-8-8--3-3-3--4-4-4--6-6-6--------|
G|-----8-8-8--3-3-3--5-5-5--7-7-7--------|
D|-----8-8-8--5-5-5--5-5-5--8-8-8--------|
A|-----6-6-6--5-5-5--3-3-3--8-8-8--------|
E|-----6-6-6--3-3-3--3-3-3--6-6-6--------|


Verse 1-2nd guitar
     
      I got your call ......
e|--6-x-6----3-x-3----3-x-3----6-x-6-----|x4
B|--8-x-8----3-x-3----4-x-4----8-x-8-----|
G|--8-x-8----5-x-5----5-x-5----8-x-8-----|
D|--8-x-8----5-x-5----5-x-5----7-x-7-----|
A|--6-x-6----5-x-5----3-x-3----6-x-6-----|
E|--6-x-6----3-x-3----3-x-3----6-x-6-----|

  I had it all in my head....,But you set me up.......always do!
                
e|--------1-----------------------6---------------------6-6---|
B|--------1-----------------------6---------------------6-6---|
G|--------1-----------------------7---------------------7-7---|
D|--------2-----------------------8---------------------8-8---|
A|--------2-----------------------8---------------------8-8---|
E|------1-1---------------------6-6---------------------6-6---|

Chorus-

The more ..
e|------6-6-6-6-----6-6-6-6----3-3-3-3----4-4-4-4-------------|
B|------6-6-6-6-----6-6-6-6----4-4-4-4----4-4-4-4-------------|
G|------8-8-8-8-----7-7-7-7----5-5-5-5----5-5-5-5-------------|
D|------8-8-8-8-----8-8-8-8----5-5-5-5----6-6-6-6-------------|
A|------8-8-8-8-----8-8-8-8----3-3-3-3----6-6-6-6-------------|
E|------6-6-6-6-----6-6-6-6----3-3-3-3----4-4-4-4-------------|

Its easy..
e|------6-6-6-6-----6-6-6-6----3-3-3-3----4-4-4-4-------------|
B|------6-6-6-6-----6-6-6-6----4-4-4-4----4-4-4-4-------------|
G|------8-8-8-8-----7-7-7-7----5-5-5-5----5-5-5-5-------------|
D|------8-8-8-8-----8-8-8-8----5-5-5-5----6-6-6-6-------------|
A|------8-8-8-8-----8-8-8-8----3-3-3-3----6-6-6-6-------------|
E|------6-6-6-6-----6-6-6-6----3-3-3-3----4-4-4-4-------------|

You say..
e|------1-1-1-1-1-----3-3-3-3-3--------------------|
B|------1-1-1-1-1-----3-3-3-3-3--------------------|
G|------1-1-1-1-1-----3-3-3-3-3--------------------|
D|------2-2-2-2-2-----5-5-5-5-5--------------------|
A|------2-2-2-2-2-----5-5-5-5-5--------------------|
E|------1-1-1-1-1-----3-3-3-3-3--------------------|

Love or lust..        it just...
e|----4-4-4-4-4-------6-6-6-6-6--666---------------|
B|----4-4-4-4-4-------6-6-6-6-6--666---------------|
G|----5-5-5-5-5-------7-7-7-7-7--777---------------|
D|----6-6-6-6-6-------8-8-8-8-8--888---------------|
A|----6-6-6-6-6-------8-8-8-8-8--888---------------|
E|----4-4-4-4-4-------6-6-6-6-6--666---------------|

Intro-

Fuel to the fire!

1st guitar
e|--------------------------------------------------------------|
B|-----/8-88-7--7---5~-----7-----------/88-7--7---5~------------|
G|----------------8------8-----h8---------------8------3/5/3/1--|
D|--------------------------------------------------------------|
A|--------------------------------------------------------------|
E|--------------------------------------------------------------|

2nd guitar 
e|-----6-6-6--3-3-3--3-3-3--6-6-6--------|x2
B|-----8-8-8--3-3-3--4-4-4--6-6-6--------|
G|-----8-8-8--3-3-3--5-5-5--7-7-7--------|
D|-----8-8-8--5-5-5--5-5-5--8-8-8--------|
A|-----6-6-6--5-5-5--3-3-3--8-8-8--------|
E|-----6-6-6--3-3-3--3-3-3--6-6-6--------|

verse 2-2nd guitar 
sexy pics..                                     
e|--6-x-6----3-x-3----3-x-3----6-x-6-----|x4    
B|--8-x-8----3-x-3----4-x-4----8-x-8-----|
G|--8-x-8----5-x-5----5-x-5----8-x-8-----|
D|--8-x-8----5-x-5----5-x-5----7-x-7-----|
A|--6-x-6----5-x-5----3-x-3----6-x-6-----|
E|--6-x-6----3-x-3----3-x-3----6-x-6-----|


i think...
e|--------1-----------------------6---------------------6-6---|
B|--------1-----------------------6---------------------6-6---|
G|--------1-----------------------7---------------------7-7---|
D|--------2-----------------------8---------------------8-8---|
A|--------2-----------------------8---------------------8-8---|
E|------1-1---------------------6-6---------------------6-6---|


-Chorus-


Fuel to the fire!

1st guitar
e|--------------------------------------------------------------|
B|-----/8-88-7--7---5~-----7-----------/88-7--7---5~------------|
G|----------------8------8-----h8---------------8----3/5/3/1----|
D|--------------------------------------------------------------|
A|--------------------------------------------------------------|
E|--------------------------------------------------------------|

2nd guitar 
e|-----6-6-6--3-3-3--3-3-3--6-6-6--------|x2
B|-----8-8-8--3-3-3--4-4-4--6-6-6--------|
G|-----8-8-8--3-3-3--5-5-5--7-7-7--------|
D|-----8-8-8--5-5-5--5-5-5--8-8-8--------|
A|-----6-6-6--5-5-5--3-3-3--8-8-8--------|
E|-----6-6-6--3-3-3--3-3-3--6-6-6--------|


I make you think ...but if we're ....fun.....were done.......oooh!
e|-----4------------3----------------33333--------66666------11111-1--|
B|-----4------------3----------------44444--------66666------11111-1--|
G|-----5------------3----------------55555--------77777------11111-1--|
D|-----6------------5----------------55555--------88888------22222-2--|
A|-----6------------5----------------33333--------88888------22222-2--|
E|-----4------------3----------------33333--------66666------11111-1--|

-Chorus-

1st guitar
e|--------------------------------------------------------------|
B|-----/8-88-7--7---5~-----7-----------/88-7--7---5~------------|
G|----------------8------8-----h8---------------8----3/5/3/1----|
D|--------------------------------------------------------------|
A|--------------------------------------------------------------|
E|--------------------------------------------------------------|

2nd guitar 
e|-----6-6-6--3-3-3--3-3-3--6-6-6--------|x2
B|-----8-8-8--3-3-3--4-4-4--6-6-6--------|
G|-----8-8-8--3-3-3--5-5-5--7-7-7--------|
D|-----8-8-8--5-5-5--5-5-5--8-8-8--------|
A|-----6-6-6--5-5-5--3-3-3--8-8-8--------|
E|-----6-6-6--3-3-3--3-3-3--6-6-6--------|

Fi-fi-fi-firee
e|------------4444---6666-|x2       
B|------------6666---8888-|        
G|------------6666---8888-|        
D|------------6666---8888-|      
A|------------4444---6666-|     
E|------------4444---6666-| 

END
comments
We did not receive enough feedback on this tab! Please rate:
print report bad tab
1 2 3 4 5
I want to post or [tab]
guest
You may want to rate the tab now too:
select rating
Please do not post tabs as comments. Select "correction" instead!