Oops, an error
Loading. Please wait.

Get Ready Tab

2,602 views 1 this week
no commentswrite comment
1 2 3 4 5
please rate
add to favorites
launch autoscroll
font size
0
reset
how to read this tab
guitar tuner
Autoscroll
slow
fast
+/-
esc
set tempo
stop
Help us to improve Ultimate-Guitar.com Take our survey!
×
Author
Difficulty
Artist: The Maine; www.myspace.com/themaine
Song: Get Ready
Tabbed by: Matt Florio; myspace.com/mattflorio2
Email: shempashland@yahoo.com

Hey, this is a relatively easy but somewhat depressing song haha! I hope you all 
much love for the Maine!
The chords are simple: basically G, Cadd9, Em.
Search youtube for the acoutic video if you get stuck!
Contact me for more info... and thanks to Kevin for requesting this song!
Enjoy!

Tuning: Standard

Intro 2x
e|-3-3-3-3-3-3-3-3--0-0-0-0-0-0-0-0----------------------|
B|-0-0-0-0-1-1-0-0--3-3-3-3-0-0-0-0----------------------|
G|-0-0-0-0-0-0-0-0--0-0-0-0-0-0-0-0----------------------|
D|-0-0-0-0-0-0-0-0--2-2-2-2-2-2-2-2----------------------|
A|-2-2-2-2-2-2-2-2--3-3-3-3-3-3-3-3----------------------|
E|-3-3-3-3-3-3-3-3---------------------------------------|

Verse
e|--3-----------------0-----------------------------------|
B|--0-----------------3-----------------------------------|
G|--0-----------------0-----------------------------------|
D|--0-----------------2-----------------------------------|
A|--2-----------------3-----------------------------------|
E|--3-----------------------------------------------------|
   "its christmas eve and i'm alone..."

Prechorus
e|----0-0-0-0-0-0-0-0--0-0-0-0-0-0-0-0------------------|
B|----3-3-3-3-3-3-3-3--3-3-3-3-3-3-3-3------------------|
G|----0-0-0-0-0-0-0-0--0-0-0-0-0-0-0-0------------------|
D|----x-x-x-x-x-x-x-x--2-2-2-2-0-0-0-0------------------|
A|----2-2-2-2-2-2-2-2--3-3-3-3-3-3-3-3------------------|
E|----0-0-0-0-0-0-0-0-----------------------------------|
   "so get ready..."

Chorus
e|----3-----3----0----0-------------------------------|
B|----3-----3----3----3-------------------------------|
G|----0-----0----0----0-------------------------------|
D|----0-----2----x----2-------------------------------|
A|----2-----3----2----3-------------------------------|
E|----3----------0------------------------------------|
   "so i'll be coming home to christmas..."

   Intro
   Verse
   Prechorus
   Chorus

Bridge
e|---0----0-----------------------------------------|
B|---3----3-----------------------------------------|
G|---0----0-----------------------------------------|
D|---x----2-----------------------------------------|
A|---2----3-----------------------------------------|
E|---0----------------------------------------------|

Interlude- the quiet part "ill be coming home.."
e|----3-----0---------------------------------------|
B|----0-----3---------------------------------------|
G|----0-----0---------------------------------------|
D|----0-----2---------------------------------------|
A|----2-----3---------------------------------------|
E|----3---------------------------------------------|

Chorus till the end and into the "fa la la..." part
Suggest correction
What's this?
You can suggest a correction to this tab. Community and Mods will review your correction and vote to approve or reject it.
comments
We did not receive enough feedback on this tab! Please rate:
print report bad tab
1 2 3 4 5
guest
You may want to rate the tab now too:
select rating
Please do not post tabs as comments. Select "correction" instead!