Oops, an error
Loading. Please wait.

Girls Just Wanna Have Fun Tab

8,293 views 9 this week
1 commentread comment
1 2 3 4 5
excellent!
x 11
add to favorites
launch autoscroll
font size
0
reset
how to read this tab
guitar tuner
Tab Pro tools
  • play this tab
  • loop segment
  • change instrument
  • show fretboard
  • metronome
×
Best way to learn
"Girls Just Wanna Have Fun"
Autoscroll
slow
fast
+/-
esc
set tempo
stop
Contributor
Difficulty
intermediate
-----------------------------------------------------------------------------
                     The Maine - Girls Just Wanna Have Fun
-----------------------------------------------------------------------------
Tabbed by : ArnoMusicTv  ( http://www.youtube.com/user/ArnoMusicTv )

Tuning: standard =  e
                    B
                    G
                    D
                    A
                    E

\ : Slide
^ : Bend


          /!\        If you need help, go watch my video :        /!\
          /!\      http://www.youtube.com/watch?v=w8PJz6P3aGk     /!\




---[ Intro ]---



e|--------------------------------------------------|
B|--------------------------------------------------|
G|--------------------------------------------------| x2
D|-------4--------4-------------8-------------4-----|
A|----3-----3----------------9-----9-------6-----6--|
E|-2-----------2-------2-/7-------------4-----------|




---[ Verse ]---



e|--------------------------------------------------|
B|--------------------------------------------------|
G|--------------------------------------------------| x4
D|-------4--------4-------------8-------------4-----|
A|----3-----3----------------9-----9-------6-----6--|
E|-2-----------2-------2-/7-------------4-----------|




---[ Pre-Chorus }---



e|--------------------------------------------------|
B|-------7^------------7^-------------7^------------|
G|-------8|------------6|-------------8|------------|
D|-8--8--9|------8--8--8|-------8--8--9|------8--8--|
A|-6--8--9|------6--8--9|-------6--8--9|------6--8--|
E|-------7|------------6|-------------7|------------|




---[ Chorus ]---



e|-------------------------------------------------------------------------|
B|-------------------------------------------------------------------------|
G|-------------------------------------------------------------------------| x2
D|-4-4-4-4-4-4-4-4--9-9-9-9--6-6-6-6--4-4-4-4--1-1-1-1--6-6-6-6--8-8-8-99--|
A|-4-4-4-4-4-4-4-4--9-9-9-9--6-6-6-6--4-4-4-4--1-1-1-1--6-6-6-6--8-8-8-99--|
E|-2-2-2-2-2-2-2-2--7-7-7-7--4-4-4-4--2-2-2-2-----------4-4-4-4--6-6-6-77--|




---[ Verse 2]---



e|--------------------------------------------------|
B|--------------------------------------------------|
G|--------------------------------------------------| x6
D|-------4--------4-------------8-------------4-----|
A|----3-----3----------------9-----9-------6-----6--|
E|-2-----------2-------2-/7-------------4-----------|




---[ Pre-Chorus }---



e|----------------------------------------------------|
B|----------------------------------------------------|
G|----------------------------------------------------| x2
D|-8-8-8-8-8-8-8-8--88-88-88-88-88-8------------------|
A|-6-6-6-6-8-8-8-8--99-99-99-99-99-9------------------|
E|----------------------------------------------------|

e|----------------------------------------------------|
B|----------------------------------------------------|
G|----------------------------------------------------| x2
D|-8-8-8-8-8-8-8-8--------------------8-8-8-8-8-8-8-8-|
A|-6-6-6-6-8-8-8-8--99-99-99-99-99-9--6-6-6-6-8-8-8-8-|
E|------------------77-77-77-77-77-7------------------|




---[ Chorus ]---



e|-------------------------------------------------------------------------|
B|-------------------------------------------------------------------------|
G|-------------------------------------------------------------------------| x2
D|-4-4-4-4-4-4-4-4--9-9-9-9--6-6-6-6--4-4-4-4--1-1-1-1--6-6-6-6--8-8-8-99--|
A|-4-4-4-4-4-4-4-4--9-9-9-9--6-6-6-6--4-4-4-4--1-1-1-1--6-6-6-6--8-8-8-99--|
E|-2-2-2-2-2-2-2-2--7-7-7-7--4-4-4-4--2-2-2-2-----------4-4-4-4--6-6-6-77--|



---[ Bridge ]---



e|-------------------------------------------------------------------------|
B|-------------------------------------------------------------------------|
G|-------------------------------------------------------------------------|
D|-1--1--1--4--4--4--9--9--9--8--8--8--4--4--4--4--4--4--4--4--4--4--4--4--|
A|-1--1--1--4--4--4--9--9--9--8--8--8--4--4--4--4--4--4--4--4--4--4--4--4--|
E|----------2--2--2--7--7--7--6--6--6--2--2--2--2--2--2--2--2--2--2--2--2--|

e|-------------------------------------------------------------------------|
B|-------------------------------------------------------------------------|
G|-------------------------------------------------------------------------|
D|-1--1--1--4--4--4--9--9--9--8--8--8--4--4--4--4--4--4--4--4--4-----------|
A|-1--1--1--4--4--4--9--9--9--8--8--8--4--4--4--4--4--4--4--4--4-----------|
E|----------2--2--2--7--7--7--6--6--6--2--2--2--2--2--2--2--2--2--1--------|





---[ Solo ]---



Rhythm

e|-------------------------------------------------------------------------|
B|-------------------------------------------------------------------------|
G|-------------------------------------------------------------------------|
D|-1--1--1--4--4--4--9--9--9--8--8--8--4--4--4--4--4--4--4--4--4--4--4--4--|
A|-1--1--1--4--4--4--9--9--9--8--8--8--4--4--4--4--4--4--4--4--4--4--4--4--|
E|----------2--2--2--7--7--7--6--6--6--2--2--2--2--2--2--2--2--2--2--2--2--|

e|-------------------------------------------------------------------------|
B|-------------------------------------------------------------------------|
G|-------------------------------------------------------------------------|
D|-1--1--1--4--4--4--9--9--9--8--8--8--4--4--4--4--4--4--4--4--4--------1--|
A|-1--1--1--4--4--4--9--9--9--8--8--8--4--4--4--4--4--4--4--4--4--------1--|
E|----------2--2--2--7--7--7--6--6--6--2--2--2--2--2--2--2--2--2--1--------|


Lead Guitar  (For all the 6 and 13, I didn't know how to write it but just
              play it really fast, wtach the video to see how to play this
              part. Link above.)


e|-------------------------------------------------------------------------|
B|-------------------------------------------------------------------------|
G|-------------------------------------------------------------------------|
D|-1--1--1---------------8^(9)^8------6^(7)^6--66666666666666666666666666--|
A|-1--1--1--9^(11)^9-------------------------------------------------------|
E|--------------------7------------4---------------------------------------|

e|----------------------------------------------------------------0--------|
B|------------------------------------------------------11--------0--------|
G|---------------------------------------------13131313-13^(15)---0--------|
D|-1--1--1---------------8^(9)^8------6^(7)^6---------------------0----1---|
A|-1--1--1--9^(11)^9---------------------------------------------------1---|
E|--------------------7------------4---------------------------------------|




---[ Bridge 2]--- Play the chords as you want.



e|---------------------------------------------|
B|---------------7-7-7-------------------------|
G|---------------6-6-6----------------8-8-8----|x3
D|-8888--8888----8-8-8---8888-8888----9-9-9----|
A|-6666--8888--9-9-9-9---6666-8888----9-9-9----|
E|----------------------------------7-7-7-7----|

e|-------------|
B|-------------|
G|-------------|
D|-8888--8888--|
A|-6666--8888--|
E|-------------|




---[ Last Chorus ]---



e|-------------------------------------------------------------------------|
B|-------------------------------------------------------------------------|
G|-------------------------------------------------------------------------| x4
D|-4-4-4-4-4-4-4-4--9-9-9-9--6-6-6-6--4-4-4-4--1-1-1-1--6-6-6-6--8-8-8-99--|
A|-4-4-4-4-4-4-4-4--9-9-9-9--6-6-6-6--4-4-4-4--1-1-1-1--6-6-6-6--8-8-8-99--|
E|-2-2-2-2-2-2-2-2--7-7-7-7--4-4-4-4--2-2-2-2-----------4-4-4-4--6-6-6-77--|

e|--------------------|
B|--------------------|
G|----------------4---|
D|--1-1-1--4-4-4--4---|
A|--1-1-1--4-4-4--2---|
E|--1-1-1--2-2-2------|


Have Fun ! :)
Arno.
comments
print report bad tab
1 comment total.
+2 reply
stefanopolis wrote on July 14 2014, 02:56 am

Pardon me but shouldn't it be

e|----------------------------------------------------|
B|----------------------------------------------------|
G|----------------------------------------------------| x2
D|-------3--------3---------------8-------------4-----|
A|----4-----4-----------4------9-----9-------6-----6--|
E|-2-----------2-----2-----/7-------------4-----------|

Otherwise very good!

I want to post or [tab]
guest
You may want to rate the tab now too:
select rating
Please do not post tabs as comments. Select "correction" instead!