Oops, an error
Loading. Please wait.

Give It To Me Tab

809 views 15 this week
no commentswrite comment
1 2 3 4 5
please rate
add to favorites
launch autoscroll
font size
0
reset
how to read this tab
guitar tuner
Autoscroll
slow
fast
+/-
esc
set tempo
stop
Help us to improve Ultimate-Guitar.com Take our survey!
×
Author
Song: Give It To Me
Artist: The Maine
Tuning: Standard
Album: Black & White

Tabbed By Apanda

Key
/= Slide Up
*= Palm Mute
~= Vibrato
\= Slide Down


Intro

e -------------------------------------------------------|
B--------------------------------------------------------|
G--------------------------------------------------------|
D----------222-----7777---222-----9999-------------------|
A----------222-----7777---222-----9999-------------------|
E----------000-2/5-5555---000-2/7-7777-------------------|
           *** * * ****   *** * * ****


Verse

Guitar 1

e -------------------------------------------------------|
B--------------------------------------------------------|
G--------------------------------------------------------|          x4
D----------222-----7777---222-----9999-------------------|
A----------222-----7777---222-----9999-------------------|
E----------000-2/5-5555---000-2/7-7777-------------------|
           *** * * ****   *** * * ****

Guitar 2

e---------5---5---5---5---3---3---3---3-----------------|
B-------6---6---6---6---6---6---6---6---6---------------|
G-------------------------------------------------------|
D-------------------------------------------------------|
A-------------------------------------------------------|
E-------------------------------------------------------|

Pre-Chorus

e------0--0---------------------------------------------|
B------0--0---------------------------------------------|
G------1--4---------------------------------------------|
D------2--4---------------------------------------------|
A------2--2---------------------------------------------|
E-------------------------------------------------------|


Chorus

e-------------------------------------------------------|
B-------------------------------------------------------|
G-------------------------------------------------------|
D--7777-xxx-222-xx-9999-xx-999---7777-xxx-222--99-xx-44-|
A--7777-xxx-222-xx-9999-xx-999---7777-xxx-222--99-xx-44-|
E--5555-xxx-000-xx-7777-xx-777---5555-xxx-000--77-xx-22-|



e-------------------------------------------------------|
B-------------------------------------------------------|
G-------------------------------------------------------|
D--7777-xxx-222-xx-9999-xx-999---7777-xxx-222--99999999-|
A--7777-xxx-222-xx-9999-xx-999---7777-xxx-222--99999999-|
E--5555-xxx-000-xx-7777-xx-777---5555-xxx-000--77777777-|




Bridge

Guitar 1

e -------------------------------------------------------|
B--------------------------------------------------------|
G--------------------------------------------------------|
D----------222-----7777---222-----9999-------------------|
A----------222-----7777---222-----9999-------------------|
E----------000-2/5-5555---000-2/7-7777-------------------|


Guitar 2

e-------------------------------7-----------------------|
B----------7---7/9--7--------7----7---------------------|
G--------9---9--------9----9---9----9-------------------|       x4
D-------------------------------------------------------|
A-------------------------------------------------------|
E-------------------------------------------------------|

End on

e---------------7/9-------------------------------------|
B----------7---------9/7--------------------------------|
G--------9---9------------------------------------------|
D-------------------------------------------------------|
A-------------------------------------------------------|
E-------------------------------------------------------|



Outro

e -------------------------------------------------------|
B--------------------------------------------------------|
G--------------------------------------------------------|
D----------222-----7777---222-----9999\------------------|
A----------222-----7777---222-----9999\------------------|
E----------000-2/5-5555---000-2/7-7777\------------------|
           *** * * ****   *** * * ***



That's pretty much it. :)

Intro
Verse
Chorus
Intro
Verse
Chorus
Bridge
Verse <--- This verse is shortened.
Chorus <-- During the segment of this they play the Guitar 2 riff from the bridge 
in the background.
Outro
Suggest correction
Give kudos to tab author, rate the tab!
1 2 3 4 5
comments
print report bad tab
guest
You may want to rate the tab now too:
select rating
Please do not post tabs as comments. Select "correction" instead!