Oops, an error
Loading. Please wait.

Ho Ho Hopefully Bass Tab

290 views 6 this week
no commentswrite comment
1 2 3 4 5
3 more votes to show rating
add to favorites
launch autoscroll
font size
0
reset
guitar tuner
Autoscroll
slow
fast
+/-
esc
set tempo
stop
Help us to improve Ultimate-Guitar.com Take our survey!
×
Author
Difficulty
My interpretation of Ho Ho Hopefully by The Maine.  Ideas/suggestions for the interlude 
are welcome.

Intro
G|-------------------------------------| x2
D|-------------------------------------|
A|----------44444444-------------------|
E|-22222222----------44444444-66664444-|
- or -
G|-------------------------------------| x2
D|-------------------------------------|
A|----------4~-------------------------|
E|-2~----------------4~-------6~--4~---|

Verse
G|-----------------------------------| x3
D|-----------------------------------|
A|------------------4444444444444444-|
E|-2222222222222222------------------|

Pre-Chorus
G|-----------------------------| x1
D|-----------------------------|
A|--------------------------4~-|
E|-4444444444444444-6~--4~-----|

Chorus
G|-------------------------------------| x3
D|-------------------------------------|
A|----------44444444-------------------|
E|-22222222----------44444444-66664444-|

G|-------------------------------------| x1
D|-------------------------------------|
A|----------44444444-------------------|
E|-22222222----------444444~-----------|

Verse
G|-----------------------------------| x4
D|-----------------------------------|
A|------------------4444444444444444-|
E|-2222222222222222------------------|

Pre-Chorus
G|-----------------------------| x1
D|-----------------------------|
A|--------------------------4~-|
E|-4444444444444444-6~--4~-----|

Chorus
G|-------------------------------------| x3
D|-------------------------------------|
A|----------44444444-------------------|
E|-22222222----------44444444-66664444-|

G|-------------------------------------| x1
D|-------------------------------------|
A|----------44444444-------------------|
E|-22222222----------444444~-----------|

Interlude
(I typically just mess around here or don't play at all.)

Chorus
G|-------------------------------------| x3
D|-------------------------------------|
A|----------44444444-------------------|
E|-22222222----------44444444-66664444-|

Ending
G|-------------------------------------| x1
D|-------------------------------------|
A|----------44444444-------------------|
E|-22222222----------444444~-----------|
Suggest correction
Give kudos to tab author, rate the tab!
1 2 3 4 5
comments
print report bad tab
guest
You may want to rate the tab now too:
select rating
Wanna post a correction for this tab? Suggest correction