Oops, an error
Loading. Please wait.

Ho Ho Hopefully Tab

47,327 views 12 this week
2 commentsread comments
1 2 3 4 5
excellent!
x 15
add to favorites
launch autoscroll
font size
0
reset
how to read this tab
guitar tuner
Autoscroll
slow
fast
+/-
esc
set tempo
stop
Help us to improve Ultimate-Guitar.com Take our survey!
×
Capo
4th fret
This tab is not for the demo version of this song from 07,
but the studio version from the Christmas e.p. that i believe
came out in december of 08. If there are any errors do let me know
but please make sure that you're referring to the correct version
of the song.

Artist: The Maine
Song: Ho Ho Hopefully
Album: ... And a Happy New Year - EP

Tuning: Standard
Capo: 4th
Slide Down: >
String Tap: x

Intro:
e|-0--0--0--0--0----|
B|-2--0--0--0--0----| 2x
G|-2--2--1--2--1----|
D|-0--2--2--4--2----|
A|----0--2--4--2----|
E|-------0-----0----|

December first... home with you baby
She's got a way... when she's not around i'm going crazy
We like to talk... hope for better weather this year

e|-0------0-------|
B|-2------0-------| 3x
G|-2------2-------|
D|-0------2-------|
A|--------0-------|
E|----------------|

But you my dear... want you alone

e|-0--0--0--0-------|
B|-0--0--0--0-------| 1x
G|-1--2--1--2-------|
D|-2--4--2--2-------|
A|-2--4--2--0-------|
E|-0-----0----------|

Ho ho hopefully... us believe that
We're exactly... to be
And we're ho ho hoping... i know

e|-0--0--0--0--0----|
B|-2--0--0--0--0----| 3x
G|-2--2--1--2--1----|
D|-0--2--2--4--2----|
A|----0--2--4--2----|
E|-------0-----0----|

We're exactly... christmas tree

e|-0--0--0----------|
B|-2--0--0----------| 1x
G|-2--2--1----------|
D|-0--2--2----------|
A|----0--2----------|
E|-------0----------|

Go together... alive inside
When I look... what a sight
She says... never will be

e|-0------0-------|
B|-2------0-------| 4x
G|-2------2-------|
D|-0------2-------|
A|--------0-------|
E|----------------|

Ho ho hopefully... want you alone

e|-0--0--0--0-------|
B|-0--0--0--0-------| 1x
G|-1--2--1--2-------|
D|-2--4--2--2-------|
A|-2--4--2--0-------|
E|-0-----0----------|

Ho ho hopefully... us believe that
We're exactly... to be
And we're ho ho hoping... i know

e|-0--0--0--0--0----|
B|-2--0--0--0--0----| 3x
G|-2--2--1--2--1----|
D|-0--2--2--4--2----|
A|----0--2--4--2----|
E|-------0-----0----|

We're exactly... christmas tree

e|-0--0--0----------|
B|-2--0--0----------| 1x
G|-2--2--1----------|
D|-0--2--2----------|
A|----0--2----------|
E|-------0----------|

Bridge:
e|------------0-----|
B|------------0-----| 4x
B|-1>2>4-2----------| 
G|---------4--------|
A|------------------|
E|------------------|
                                      Baby I want you alone...
e|------------x-----x----0-x--0--|    e|-0--|
B|------------x-----x------x--3--|    B|-0--|
G|-1>2>4--7-4-x-6-2-x-1>2--x--2--|    G|-1--|
D|------------x-----x------x--0--|    D|-2--|
A|------------x-----x------x-----|    A|-2--|
E|------------x-----x------x-----|    E|-0--|

Ho ho hopefully... us believe that
We're exactly... to be
And we're ho ho hoping... i know

e|-0--0--0--0--0----|
B|-2--0--0--0--0----| 3x
G|-2--2--1--2--1----|
D|-0--2--2--4--2----|
A|----0--2--4--2----|
E|-------0-----0----|

We're exactly... christmas tree

e|-0--0--0----------|
B|-2--0--0----------| 1x
G|-2--2--1----------|
D|-0--2--2----------|
A|----0--2----------|
E|-------0----------|

Lyrics

December first, I'm in a foreign state
I'm running late, I'm all alone
Wishing I was home with you, baby
She's got a way of making things okay
When she's not around
When she's not around I'm going crazy
We like to talk about the plans we make
And things we say when we're together
I hope for better weather this year
But you my dear, need to know
This year I want you alone

Ho ho hopefully
This holiday will make us believe that
We're exactly where we're supposed to be
And we're ho ho hoping that
We all come back and as a matter of fact I know
We're exactly where we're supposed to be
Together by this Christmas tree

We go together like the winter and a sweater
And she makes me feel
She makes me feel alive inside
And when I look into her eyes
I see the blue and green like Christmas lights
Like Christmas lights oh what a sight
She says I've got a way of making everything okay
She's not alone, she's not alone, and never will be
Ho ho hopefully this year I'll have you alone

Ho ho hopefully
This holiday will make us believe that
We're exactly where we're supposed to be
And we're ho ho hoping that
We all come back and as a matter of fact I know
We're exactly where we're supposed to be
Together by this Christmas tree

Don't you know this year I want you
Baby I want you alone

Ho ho hopefully
This holiday will make us believe that
We're exactly where we're supposed to be
(I'm exactly where we're supposed to be)
And we're ho ho hoping that
We all come back and as a matter of fact I know
We're exactly where I need to be
Together by the Christmas tree
comments
print report bad tab
2 comments total.
0 reply
deadlydogrunner 65 wrote on January 20 2009, 09:08 pm

you should tab the song whoever she is

+1 reply
mikeweidner38 1,077 wrote on December 11 2009, 10:36 am

this is a very good base. i think i am talking about the same song, and i am sorry if i am not, but we all know the ending drags on a little further will plucking. as well as you missed the intro. they really do have 2 dif guitars in this song. but you really nailed all the chords.

I want to post or [tab]
guest
You may want to rate the tab now too:
select rating
Please do not post tabs as comments. Select "correction" instead!