Oops, an error
Loading. Please wait.

I Wanna Love You Tab

14,682 views 3 this week
2 commentsread comments
1 2 3 4 5
excellent!
x 2
add to favorites
launch autoscroll
font size
0
reset
how to read this tab
guitar tuner
Tab Pro tools
  • play this tab
  • loop segment
  • change instrument
  • show fretboard
  • metronome
Autoscroll
slow
fast
+/-
esc
set tempo
stop
Contributor
----------------------------------------------------------------------------
                 I WANNA LOVE YOU (Akon Cover) - The Maine
----------------------------------------------------------------------------
tabbed by: Avrill
e-mail: avrill_xx@yahoo.com

I used this video http://www.youtube.com/watch?v=b_pmerpr5qs 
and the studio version for this tab and it might be a bit mixed up but it sounds good :)


INTRO
(the bell things)
e|--12-9------12-9--12-9--9--9-10-9--------|
B|------12-10-----------------------12-10--|
G|-----------------------------------------|
D|-----------------------------------------| x6
A|-----------------------------------------|
E|-----------------------------------------|

guitar 1
e|----------------------------------|
B|----------------------------------|
G|----------7-6-4-------------------|
D|--4--7-7--7-6-4---4--7-7----------|  
A|--4--7-7--5-4-2---4--7-7--4-5-4-2-|
E|--2--5-5----------2--5-5----------|

guitar 2
e|-----------------------------------------|
B|-----------------------------------------|
G|--9--------------------------------------|
D|----11-9-----12-11-9-----9--11h12p11-9---|
A|---------12-----------12-----------------|
E|-----------------------------------------|

guitar 3
e|----------------------------------|
B|----------------------------------|
G|--7-9-9--12-11-9--7-9-9--12-11-9--|
D|----------------------------------|
A|----------------------------------|
E|----------------------------------|


VERSE

money in the air as more fell...
guitar 2
e|-----------------------------------------|
B|-----------------------------------------|
G|--9--------------------------------------|
D|----11-9-----12-11-9-----9--11h12p11-9---|  
A|---------12-----------12-----------------|
E|-----------------------------------------|


baby stick on me...
guitar 1
e|---------------------------------|
B|---------------------------------|
G|--7-7-7-7-7-7-7------------------|
D|--7-7-7-7-7-7-7--4-4-4-4-4-4-4-4-|
A|--5-5-5-5-5-5-5--4-4-4-4-4-4-4-4-|
E|-----------------2-2-2-2-2-2-2-2-|
pm.................................
guitar 2 
e|-----------------------------------------|
B|-----------------------------------------|
G|--9--------------------------------------|
D|----11-9-----12-11-9-----9--11h12p11--9--|  
A|---------12-----------12-----------------|
E|-----------------------------------------|

guitar 1
e|---------------------------------|
B|---------------------------------|
G|---------------------------------|
D|--7-7-7-7-7-7-7--9-9-9-9-9-9-9-9-|
A|--7-7-7-7-7-7-7--9-9-9-9-9-9-9-9-|
E|--5-5-5-5-5-5-5--7-7-7-7-7-7-7-7-|
pm.................................

guitar 2 
e|-----------------------------------------|
B|-----------------------------------------|
G|--9----------------------------------9---|
D|----11-9-----12-11-9-----9--11h12p11-----|  
A|---------12-----------12-----------------|
E|-----------------------------------------|

guitar 1
e|---------------------------------|
B|---------------------------------|
G|--7-7-7-7-7-7-7------------------|
D|--7-7-7-7-7-7-7--4-4-4-4-4-4-4-4-|
A|--5-5-5-5-5-5-5--4-4-4-4-4-4-4-4-|
E|-----------------2-2-2-2-2-2-2-2-|
pm.................................

guitar 2 
e|-----------------------------------------|
B|-----------------------------------------|
G|--9--------------------------------------|
D|----11-9-----12-11-9-----9--11h12p11--9--|  
A|---------12-----------12-----------------|
E|-----------------------------------------|

guitar 1
e|-----------------0-0--0-0-0-0-0--|
B|-----------------0-0--0-0-0-0-0--|
G|-----------------1-1--1-1-1-1-1--|
D|--7-7-7-7-7-7-7--2-2--2-2-2-2-2--|
A|--7-7-7-7-7-7-7--2-2--2-2-2-2-2--|
E|--5-5-5-5-5-5-5--0-0--0-0-0-0-0--|
pm................

guitar 2 
e|-----------------------------------------|
B|-----------------------------------------|
G|--9----------------------------------9---|
D|----11-9-----12-11-9-----9--11h12p11-----|  
A|---------12-----------12-----------------|
E|-----------------------------------------|


CHORUS
I see you winding and grinding up on that pole
guitar 1
e|--------------------------------|
B|--------------------------------|
G|--------------------------------|
D|--7-7-7-7-7-7-7--2-2-2-2-2-2-2--|
A|--7-7-7-7-7-7-7--2-2-2-2-2-2-2--|
E|--5-5-5-5-5-5-5--0-0-0-0-0-0-0--|

guitar 2
e|-----------------------------------------|
B|-----------------------------------------|
G|--9--------------------------------------|
D|----11-9-----12-11-9-----9--11h12p11-9---|  
A|---------12-----------12-----------------|
E|-----------------------------------------|

guitar 3
e|------------------------------------|
B|------------------------------------|
G|------------------------------------|
D|--9p7-7h9-9p7-7h9--9-11-9h11-9\7----|
A|------------------------------------|
E|------------------------------------|

I know you see me looking at you and you already know
guitar 1
e|---------------------------------|
B|---------------------------------|
G|--7-7-7-7-7-7-7--9-9-9-9-9-9-9---|
D|--7-7-7-7-7-7-7--9-9-9-9-9-9-9---|
A|--5-5-5-5-5-5-5--7-7-7-7-7-7-7---|
E|---------------------------------|

guitar 2
e|-----------------------------------------|
B|-----------------------------------------|
G|--9--------------------------------------|
D|----11-9-----12-11-9-----9--11h12p11-9---|  
A|---------12-----------12-----------------|
E|-----------------------------------------|

guitar 3
e|------------------------------------|
B|------------------------------------|
G|-----------------------------9------|
D|--9p7-7h9-9p7-7h9--7\9--9\11--------|
A|------------------------------------|
E|------------------------------------|

I wanna love you
guitar 1
e|--------------------------------|
B|--------------------------------|
G|--------------------------------|
D|--7-7-7-7-7-7-7--2-2-2-2-2-2-2--|
A|--7-7-7-7-7-7-7--2-2-2-2-2-2-2--|
E|--5-5-5-5-5-5-5--0-0-0-0-0-0-0--|

guitar 2
e|-----------------------------------------|
B|-----------------------------------------|
G|--9--------------------------------------|
D|----11-9-----12-11-9-----9--11h12p11-9---|  
A|---------12-----------12-----------------|
E|-----------------------------------------|

guitar 3
e|------------------------------------|
B|------------------------------------|
G|------------------------------------|
D|--9p7-7h9-9p7-7h9--9-11-9h11-9\7----|
A|------------------------------------|
E|------------------------------------|

I wanna love you
guitar 1
e|---------------------------------|
B|---------------------------------|
G|--7-7-7-7-7-7-7--9-9-9-9-9-9-9---|
D|--7-7-7-7-7-7-7--9-9-9-9-9-9-9---|
A|--5-5-5-5-5-5-5--7-7-7-7-7-7-7---|
E|---------------------------------|

guitar 2
e|-----------------------------------------|
B|-----------------------------------------|
G|--9--------------------------------------|
D|----11-9-----12-11-9-----9--11h12p11-9---|  
A|---------12-----------12-----------------|
E|-----------------------------------------|

guitar 3
e|------------------------------------|
B|------------------------------------|
G|-----------------------------9------|
D|--9p7-7h9-9p7-7h9--7\9--9\11--------|
A|------------------------------------|
E|------------------------------------|


VERSE
guitar 1
e|----------------------------------|
B|----------------------------------|
G|----------7-6-4-------------------|
D|--4--7-7--7-6-4---4--7-7----------|  x2
A|--4--7-7--5-4-2---4--7-7--4-5-4-2-|  
E|--2--5-5----------2--5-5----------|

guitar 2
e|-----------------------------------------|
B|-----------------------------------------|
G|--9--------------------------------------|
D|----11-9-----12-11-9-----9--11h12p11-9---|  x2
A|---------12-----------12-----------------|
E|-----------------------------------------|

          
guitar 3
e|----------------------------------|
B|----------------------------------|
G|--7-9-9--12-11-9--7-9-9--12-11-9--|       
D|----------------------------------| x2    
A|----------------------------------|        
E|----------------------------------| 
      
guitars stops, bass continues

You can't see me but I can see you...

You're rubbing your back...
guitar 1
e|--------------------------------|
B|--------------------------------|
G|--------------------------------|
D|--4-4-4-4-4-4-4--7-7-7-7-7-7-7--|
A|--4-4-4-4-4-4-4--7-7-7-7-7-7-7--|
E|--2-2-2-2-2-2-2--5-5-5-5-5-5-5--|

guitar 2
e|-----------------------------------------|
B|-----------------------------------------|
G|-----------------------------------------|
D|----11-9-----12-11-9-----9--11h12p11-9---|  
A|---------12-----------12-----------------|
E|-----------------------------------------|

guitar 3
e|--------------------------------|
B|--------------------------------|
G|--------------------------------|
D|---------7\6--------------------| 
A|--7-9-7------7------------------|
E|---------------9-------7-9-9-7--|

and touching your neck  your body's moving!
guitar 1
e|-----------------0-0-0--0-0-0-0--|
B|-----------------0-0-0--0-0-0-0--|
G|-----------------1-1-1--1-1-1-1--|
D|--4-4-4-4-4-4-4--2-2-2--2-2-2-2--|
A|--4-4-4-4-4-4-4--2-2-2--2-2-2-2--|
E|--2-2-2-2-2-2-2--0-0-0--0-0-0-0--|

guitar 2 
e|-----------------------------------------|
B|-----------------------------------------|
G|--9----------------------------------9---|
D|----11-9-----12-11-9-----9--11h12p11-----|  
A|---------12-----------12-----------------|
E|-----------------------------------------|

guitar 3
e|--------------------------------|
B|--------------------------------|
G|--------------------9-9-9-9-9-9-|
D|---------7\6--------------------| 
A|--7-9-7------7------------------|
E|---------------9----------------|

CHORUS

BRIDGE  (I'm sure about guitar one but I couldn't hear the other ones well)

guitar 1
e|--------------------------------|
B|--------------------------------|
G|--------------------------------|
D|--4--7-7-7-7-7-7-7-7-7-7-7-7-7--|  x2 
A|--4--7-7-7-7-7-7-7-7-7-7-7-7-7--|
E|--2--5-5-5-5-5-5-5-5-5-5-5-5-5--|

guitar 2 
e|-----------------------------------------|
B|-----------------------------------------|
G|--9----------------------------------9---|
D|----11-9-----12-11-9-----9--11h12p11-----| x3
A|---------12-----------12-----------------|
E|-----------------------------------------|

guitar 3
e|------------------------------------|
B|------------------------------------|
G|-----------------------------9------|
D|--9p7-7h9-9p7-7h9--7\9--9\11--------|  x3
A|------------------------------------|
E|------------------------------------|


I see you winding and grinding...
guitar 1 
e|--------------|
B|--------------|
G|--------7-----|
D|--7--2--7--2--|
A|--7--2--5--2--|
E|--5--0-----0--|


CHORUS and end on A

OUTRO

e|-----12-9--12--------9--9--9-10-9--------|
B|---------------12--12-------------12-10--|
G|-----------------------------------------|
D|-----------------------------------------|
A|-----------------------------------------|
E|-----------------------------------------|

| /  slide up
| \  slide down
| h  hammer-on
| p  pull-off
|pm. palm muted
comments
We did not receive enough feedback on this tab! Please rate:
print report bad tab
1 2 3 4 5
2 comments total.
0 reply
Corymartin wrote on January 20 2009, 12:59 pm

Thank you!

Drop D is alot easier though.

0 reply
Avrill wrote on January 20 2009, 01:52 pm

maybe.. didn't think of that :)

I want to post or [tab]
guest
You may want to rate the tab now too:
select rating
Please do not post tabs as comments. Select "correction" instead!