Oops, an error
Loading. Please wait.

Ice Cave bass

97 views 3 this week
no commentswrite comment
1 2 3 4 5
2 more votes to show rating
add to favorites
×
Save as Personal and add changes to this tab that will be seen only by you. Learn more ›
×
You can save this tab as Personal to edit and correct it or add notes. All changes will be seen only by you. Learn more »
launch autoscroll
font size
0
reset
guitar tuner
edit
Autoscroll
slow
fast
+/-
esc
set tempo
stop
About this tab version
Wouldn't make sense if you hit 0 and pull off on 2. Was this info helpful? Yes No
[Intro] 4x

G|------------------------3-----2-----------------3-----2--------------------|
D|9-7-5-4-2-------------2-----1---2~------------2-----1---2~-----------------|
A|----------------0-2-3-----2-------------0-2-3-----2------------------------| 
E|----------0~~~~-------------------0~~~~--------------------0~~~~-----------|

or

G|4-2-0-------------------3---2------------------3----2-----2-------------|
D|------4-2-------------2----1--2~-------------2-----1--2~----------------|
A|----------------0-2-3-----2-------------0-2-3-----2---------------------| 
E|----------0~~~~-------------------0~~~~--------------------0~~~~--------|

[Verse] "Take me to the water.... To where this all began

G|--------3-----3------------------------------------------------------------|
D|------2-----1---2~----------------2~-------------2/5\2~--------------------|
A|0-2-3-----2--------------3-3-2-2---------3-3-2-2------------3-3-2-2--------|
E|---------------------------------------------------------------------------|

[Chorus]"In the end... Will you sink or swim"
G|---0h22-------------0h22------------------|
D|-----------0h22------------9-7-5-4-2------|
A|0~--------------0~------------------------|
E|--------0~---------------7~----------0~---|


[pre-verse]

G|------------------------3-----2-----------------3-----2--------------------|
D|9-7-5-4-2-------------2-----1---2~------------2-----1---2~-----------------|
A|----------------0-2-3-----2-------------0-2-3-----2------------------------|
E|----------0~~~~-------------------0~~~~--------------------0~~~~-----------|

G|---------2-----2---------------------3-----2-------------------------------|
D|-------2-----1---2~~~~-------------2-----1---------------------------------|
A|-0-2-3-----2-----------------0-2-3-----2-----------------------------------|
E|-----------------------0~~~~-----------------------------------------------|

[Verse] "Always the children... the water's clear"

G|--------3-----3------------------------------------------------------------|
D|------2-----1---2~----------------2~-------------2/5\2~--------------------|
A|0-2-3-----2--------------3-3-2-2---------3-3-2-2------------3-3-2-2--------|
E|-------------------0~~~~-------------0~~----------------0~~----------------|

[Chorus]"In the end... Will you sink or swim"
G|---0h22-----------0h22-------------------|
D|---------0h22------------9-7-5-4-2-------|
A|0~------------0~-------------------------|
E|-------0~--------------7~----------0~----|

[instrumental]

G|---------------------------------------------------------------------------|
D|2~~~~--------------2/5\2~~~~-----------------------------------------------|
A|-----------3-3-2-2-----------------3-3-2-2---------------------------------|
E|-----0~~~~-------------------0~~~~-----------------------------------------|


[Ending]
G|--------------------------------------------------------------|
D|5--5--5--5----------------------------------------------------|
A|-77-77-77-77-3-3-3-3-2-2-2-2----------------------------------|
E|--------------------------------------------------------------|

"Take me to the water... oh-woooah" 7x
G|---------------------------------------------------------------------------|
D|--------7-------7-7--------------------------------------------------------|
A|5-5-5-5--5-5-5-5-5-5-------------------------------------------------------|
E|---------------------------------------------------------------------------|

This is the close I can get it from just listening to it and trying to hear Garrett play. For the intro it
doesn't matter what version you use in the beginning whether you start with G or D strings. But for the chorus
I would suggest using the D string. 


************************************

| ~  Vibrato
| /  Slide up
| \  Slide down
| h  hammer on

************************************

            
            
Suggest correction
Creating personal tab
Creating personal tab
You can edit any tab online and save it as your Personal.

You can edit, replace or remove any tab part or add personal notes – all changes will be seen only by you.

Personal tabs can be accessed anytime from any device, even offline.
Learn more »
Give kudos to tab author, rate the tab!
1 2 3 4 5
comments
print report bad tab
guest
You may want to rate the tab now too:
select rating
Wanna post a correction for this tab? Suggest correction