Oops, an error
Loading. Please wait.

Ice Cave Tab

703 views 3 this week
no commentswrite comment
1 2 3 4 5
please rate
add to favorites
launch autoscroll
font size
0
reset
how to read this tab
guitar tuner
Autoscroll
slow
fast
+/-
esc
set tempo
stop
Help us to improve Ultimate-Guitar.com Take our survey!
×
Author
Ice Cave by The Maine, Live in Sao Paulo version.

[Intro]

E|---------x-x-0~--------------------------|
B|---------x-x-0~-------------0--------0---|
G|---------x-x-0~-----------0--------0-----|
D|---------x-x-2~---------2--------1-------|
A|-2-0-----x-x-2~---0h2h3--------2---------|
E|-----3-2-x-x-0~--------------------------|

E|-x-x-0~-----------------------------|     (3x)
B|-x-x-0~-------------0------0--------|
G|-x-x-0~-----------0-------0---------|
D|-x-x-2~---------2--------1----------|
A|-x-x-2~---0h2h3---------2-----------|
E|-x-x-0~-----------------------------|

"Take me to the water."
Guitar 1

E|-x-x-0~-------------------------|
B|-x-x-0~--------------------0----|
G|-x-x-0~------------------0------|
D|-x-x-2~----------------1--------|
A|-x-x-2~---3~---------2----------|
E|-x-x-0~-------------------------|

"Wash away my sins......where this all began"

E|-x-x-0~-------------------------|     (3x)
B|-x-x-0~-------------0--------0--|
G|-x-x-0~-----------0--------0----|
D|-x-x-2~---------2--------1------|
A|-x-x-2~---0h2h3--------2--------|
E|-x-x-0~-------------------------|

Guitar 2
E|-------------------------------------|
B|-------------------------------------|
G|-0----------5---------4--------------|
D|-2-(x8)------5-(x4)----4---(x4)------|
A|-2----------3---------2--------------|
E|-------------------------------------|

[Pre chorus]

It begins,

E|--0~---|
B|--1~---|
G|--2~---|
D|--2~---|
A|--0~---|
E|--0~---|

Oh it begins

E|--0~---|
B|--0~---|
G|--0~---|
D|--2~---|
A|--2~---|
E|--0~---|

"In the end...."

E|--0~---|
B|--1~---|
G|--2~---|
D|--2~---|
A|--0~---|
E|--0~---|

"Oh in the end..."

E|--0~---|
B|--0~---|
G|--0~---|
D|--1~---|
A|--2~---|
E|--0~---|

"Will you sink or swim?"
Guitar 1

E|---------x-x-0~-----------------------|
B|---------x-x-0~-------------0------0--|
G|---------x-x-0~-----------0-------0---|
D|---------x-x-2~---------2--------1----|
A|-2-0-----x-x-2~---0h2h3---------2-----|
E|-----3-2-x-x-0~-----------------------|

"....Will you sink or swim?"

E|-x-x-0~-------------------------|
B|-x-x-0~-------------0------0----|
G|-x-x-0~-----------0-------0-----|
D|-x-x-2~---------2--------1------|
A|-x-x-2~---0h2h3---------2-------|
E|-x-x-0~-------------------------|

Guitar 2

E|-------------------------------------|
B|-------------------------------------|
G|-0----------5---------4--------------|
D|-2-(x8)------5-(x4)----4---(x4)------|
A|-2----------3---------2--------------|
E|-------------------------------------|

[Verse 2]
Guitar 1

E|-x-x-0~--------------------------|     (2x)
B|-x-x-0~--------------------------|
G|-x-x-0~--------------------------|
D|-x-x-2~--------------------------|
A|-x-x-2~---3~---------2~----------|
E|-x-x-0~--------------------------|

Halfway during the verses in the background.

Guitar 2

E|-----------------------------------------------------------|
B|-----------------------------------------------------------|
G|--77-999----77-999-----77-999-------7----------------------|
D|---------------------------------7h9---9-7-5-2-------------|
A|-----------------------------------------------------------|
E|-----------------------------------------------------------|

[Pre chorus]

[Solo]

E|-----------------------------------------------------------------------------------|
B|---16~/17~--17/16b---17------------------------------------------------------------|
G|------------------------16-14-----------------------------------------14/15-15-15--|
D|--------------------------------17-14-12-14-17b~-17b-17b-17b-17b-------------------|
A|-----------------------------------------------------------------------------------|
E|-----------------------------------------------------------------------------------|

E|------------------------------------------------------------------------------------|
B|------------------------------------------------------------------------------------|
G|--19-15-19-15-19-15----15/14/12-----------------------------------------------------|
D|----------------------------------14-12-14-17------14-12-14-17----14-12-14-17-------|
A|------------------------------------------------------------------------------------|
E|------------------------------------------------------------------------------------|

E|------------------------------------------------------------------------------------|
B|-----------15-----15-15-15-15-15-15-15-15-15-15-15-15-15-15-15----------------------|
G|----14/15---------15-15-15-15-15-15-15-14-14-14-15-14-12-12-12----------------------|
D|-------------------------------------------------------------------14---------------|
A|------------------------------------------------------------------------------------|
E|------------------------------------------------------------------------------------|


E|-----------------------------------------------------------------------------------|
B|-----------------------------10-------------------12------15-12--------------------|
G|---12b~----14b~------12/9------12h9h12h9----12~----14-----------14---12-9-12-14----|
D|-----------------------------------------------------------------------------------|
A|-----------------------------------------------------------------------------------|
E|-----------------------------------------------------------------------------------|

E|-----------------------------------------------15-----------------------------------|
B|--------15---------15--------15-15-15-15-15------15-13------17----------------------|
G|--14h15-----14h15-----14h15----15-15-15-15-----------15-------16--15-15-15-12-------|
D|------------------------------------------------------------------------------------|
A|------------------------------------------------------------------------------------|
E|------------------------------------------------------------------------------------|


[Pre chorus]


[Ending]

"Will you sink or swim?"

E|------------------------------------|
B|------------------------------------|
G|-0----------5---------4-------------|
D|-2-(x8)-----5-(x4)----4---(x4)------|
A|-2----------3---------2-------------|
E|------------------------------------|

E|---------------------------------------------------------|
B|---------------------------------------------------------|
G|---------------------------------------------------------|
D|---------5---------5-----5--------5----------------------|
A|---7p5h7----7p5h7----7p5----7p5h7-----7-5-4h5p4-2--------|
E|---------------------------------------------------------|

"Take me to the water."

E|------------------------------------|
B|------------------------------------|   (Palm muted)
G|-0----------5---------4-------------|
D|-2-(x8)-----5-(x4)----4--(x4)-------|
A|-2----------3---------2-------------|
E|------------------------------------|

E|------------------------------------------|
B|------------------------------------------|
G|------------------------------------------|
D|----------------------2-------------------|
A|--2-0-------2-0-------2-------------------|
E|-------3-2------3-2---0~------------------|
Suggest correction
What's this?
You can suggest a correction to this tab. Community and Mods will review your correction and vote to approve or reject it.
comments
We did not receive enough feedback on this tab! Please rate:
print report bad tab
1 2 3 4 5
guest
You may want to rate the tab now too:
select rating
Please do not post tabs as comments. Select "correction" instead!