Oops, an error
Loading. Please wait.

Identify Tab

6,673 views 15 this week
2 commentsread comments
1 2 3 4 5
excellent!
x 9
add to favorites
launch autoscroll
font size
0
reset
how to read this tab
guitar tuner
Autoscroll
slow
fast
+/-
esc
set tempo
stop
Help us to improve Ultimate-Guitar.com Take our survey!
×
Author
Difficulty
-------------------------------------------------------------------------------
                             Identify – The Maine
-------------------------------------------------------------------------------
Tabbed by: Chris Godoy
Email: zadosroma32@yahoo.com

Tuning: Standard


Intro
e|--------0-----------0------------0-----------0-----------------|
B|-----3-----3-----3-----3------3-----3-----3-----3--------------|
G|--2-----------1------------0-----------0-----------------------|
D|---------------------------------------------------------------|
A|---------------------------------------------------------------|
E|---------------------------------------------------------------|  x2

Verse 1 "Some things are out of my hands..."
e|--------0-----------0------------0-----------0-----------------|
B|-----3-----3-----3-----3------3-----3-----3-----3--------------|
G|--2-----------1------------0-----------0-----------------------|
D|---------------------------------------------------------------|
A|---------------------------------------------------------------|
E|---------------------------------------------------------------| x4
*Note: At the end of the "3 2 1, here come fireworks baby" end on this

Chorus pt 1
e|----------------------------------------------------------------------|
B|----------------------------------------------------------------------|
G|--7--7----------------------------------------------------------------|
D|--7--7------5---------------------------------------------------------|
A|--5--5------5----------------5----------------------------------------|
E|------------3-----5---5-7---------------------------------------------| x4


Verse 2 "Sometimes you can feel so low.."
e|-----------------------------------------------------------------|
B|--*--*--*--*--*--*--*--*--*--*--*--*--*--*--*--*-----------------|
G|--7--7--7--7--7--7--7--7--7--7--7--7--7--7--7--7---7-------------|
D|--7--7--7--7--6--6--6--6--5--5--5--5--5--5--5--5---5-------------|
A|-----------------------------------------------------------------|
E|-----------------------------------------------------------------|
*Note: Palm-Mute


Back to Chorus Part 1 "Yeaaaaahhh, identify"

Chorus Part 2 "Don't Stand in line..."
e|--------------------------------------------------------------------------|
B|--------------------------------------------------------------------------|
G|--------------------------------------------------------------------------|
D|--9----------5--------7--------------4b5r4--------------------------------|
A|--9----------5--------7---------------------------------------------------|
E|--7---[x8]--3-[x4]--5-----------------------------------------------------|

Then do Chorus Part 1 again


Bridge "Yeah, I bought the last plane ticket to the end of the world..."
e|-------------10--------10----------------------------------------------|
B|-------10----------10------10------------------------------------------|
G|--11-----------12-------------12---------------------------------------|
D|-----------------------------------------------------------------------|
A|-----------------------------------------------------------------------|
E|-----------------------------------------------------------------------|x12

End the Bridge with the intro part again "... Time to give 'em what they're waiting for"
e|--------0-----------0------0~----------------------------------|
B|-----3-----3-----3-----3---3~----------------------------------|
G|--2-----------1------------0~----------------------------------|
D|---------------------------------------------------------------|
A|---------------------------------------------------------------|
E|---------------------------------------------------------------|
Then back to...
Chorus Part 1
Chorus Part 2
Chorus Part 1

End with the intro.

And you just played Identify by The Maine :D

Hopefully this helps with learning the song. My way is certainly not the only way yo 
play it, but I think it is a good guide.

Feel free to comment with questions, comments, or corrections.
Thank your for reading! Play on!
And pleeeeease rate!

-CG


************************************
| /   slide up
| \   slide down
| h   hammer-on
| p   pull-off
| ~   vibrato
| +   harmonic
| x   Mute note
| b   Bend
| pb  Pre-bend
| br  Bend release
| pbr Pre-bend release
| brb Bend release bend

************************************
Suggest correction
comments
print report bad tab
2 comments total.
+1 reply
Sparkysguitar01 43 wrote on April 13 2012, 02:17 pm

great job! :D

0 reply
mrskirch 10 wrote on May 27 2012, 04:24 pm

I'll tell you, I'd never have imagined myself playing something Jared Monaco, but this is 100% accurate and easy! Now I can show off to my friends! ;)
Thanks so much!

guest
You may want to rate the tab now too:
select rating
Please do not post tabs as comments. Select "correction" instead!