Oops, an error
Loading. Please wait.

If I Only Had A Heart Bass Tab

3,572 views 6 this week
1 commentread comment
1 2 3 4 5
please rate
add to favorites
launch autoscroll
font size
0
reset
guitar tuner
Autoscroll
slow
fast
+/-
esc
set tempo
stop
Help us to improve Ultimate-Guitar.com Take our survey!
×
Difficulty
intermediate
The Maine - If I Only Had A Heart
www.myspace.com/themaine

Just listen carefully for the timing on the second verse while the guitar starts 
the timing changes slightly, notes stay the same though.

Verse
G|-----------------------------------------------------|
D|-----------------------------------------------------|
A|--------------4444-4444-------------6666-6666--------|  x 4
E|--4444-4444--------------4444-4444-------------------|

Pre Chorus
                                  4x 10s    4x 11s
G|---------------------------------------------------|
D|---------------------------------------------------|
A|--8888--6666--4444--4444--8888--10101010-11111111--|
E|---------------------------------------------------|

Chorus
                                                           4x 10s    4x 11s
G|-----------------------------------------------------------------------------|
D|-----------------------------------------------------------------------------|
A|--------4--4--4--8888--6666--4444---------4--4--4--8888--10101010--11111111--|  x 4
E|--4-44------------------------------4-44-------------------------------------|

Verse (Listen for timing on this part, its slightly different to the other verses)
G|-----------------------------------------------------|
D|-----------------------------------------------------|
A|--------------4444-4444-------------6666-6666--------|  x 6
E|--4444-4444--------------4444-4444-------------------|

Pre Chorus
                                  4x 10s    4x 11s
G|---------------------------------------------------|
D|---------------------------------------------------|
A|--8888--6666--4444--4444--8888--10101010-11111111--|
E|---------------------------------------------------|

Chorus
                                                           4x 10s    4x 11s
G|-----------------------------------------------------------------------------|
D|-----------------------------------------------------------------------------|
A|--------4--4--4--8888--6666--4444---------4--4--4--8888--10101010--11111111--|  x 4
E|--4-44------------------------------4-44-------------------------------------|


Post-Chorus
G|-----------------------------------------------------|
D|-----------------------------------------------------|
A|--------------4444-4444-------------6666-6666--------|  x 2
E|--4444-4444--------------4444-4444-------------------|


Bridge
G|-----| Ring   |------------------|
D|-----| Out    |------------------|
A|--4~-| Once   |--6h88--44~-------| x6
E|-----| Then   |------------------|


Post-Chorus
G|-----------------------------------------------------|      |------------|
D|-----------------------------------------------------|      |------------|
A|--------------4444-4444-------------6666-6666--------|  x 2 |---------4~-|
E|--4444-4444--------------4444-4444-------------------|      |--44-44-----|
Suggest correction
Give kudos to tab author, rate the tab!
1 2 3 4 5
comments
print report bad tab
1 comment total.
0 reply
Dire182 10 wrote on July 8 2008, 09:53 pm

Great tab, the timing on the second verse is really easy to figure out if you listen closely.

guest
You may want to rate the tab now too:
select rating
Please do not post tabs as comments. Select "correction" instead!