Oops, an error
Loading. Please wait.

Im Sorry Tab

4,187 views 3 this week
1 commentread comment
1 2 3 4 5
excellent!
x 6
add to favorites
launch autoscroll
font size
0
reset
how to read this tab
guitar tuner
Autoscroll
slow
fast
+/-
esc
set tempo
stop
Help us to improve Ultimate-Guitar.com Take our survey!
×
Author
Difficulty
kpnrqz 86
novice
So this is the intro and the solo.
I learned it by ear so I'm not sure if this is 100% correct. 

Intro
e|-------7------------8-7---------------7-5-----|
B|-8-7-8------8-8-7-8-----7-----8-8-7-8-----7-5-|
G|----------------------------------------------| 
D|----------------------------------------------| 
A|----------------------------------------------|
E|----------------------------------------------|

Solo
e|--------------7-10----------------------------|--------------7-10----------------------------|
B|-7-7-8-7-5--------------7-7-8-7-5-----8-------|-7-7-8-7-5--------------7-7-8-7-5------7------|
G|----------------------------------------7-----| ------------------------------------7--------| 
D|----------------------------------------------|----------------------------------------------|
A|----------------------------------------------|----------------------------------------------|
E|----------------------------------------------|----------------------------------------------|
Suggest correction
What's this?
You can suggest a correction to this tab. Community and Mods will review your correction and vote to approve or reject it.
comments
print report bad tab
1 comment total.
0 reply
mryoyo9 43 wrote on June 27 2015, 05:11 pm

Made it more accurate, I think for the intro


e|-------7------------8-7-----------7-5---------|
B|-7p8p7------7-7p8p7--------7-7p87-----7-5-----|
G|----------------------------------------------|
D|----------------------------------------------|
A|----------------------------------------------|
E|----------------------------------------------|

guest
You may want to rate the tab now too:
select rating
Please do not post tabs as comments. Select "correction" instead!