Oops, an error
Loading. Please wait.

Im Sorry Tab

4,310 views 1 this week
1 commentread comment
1 2 3 4 5
x 7
add to favorites
launch autoscroll
font size
0
reset
how to read this tab
guitar tuner
×
Best way to learn
"Im Sorry"
Autoscroll
slow
fast
+/-
esc
set tempo
stop
Author
Difficulty
  follow
novice
o 
I learned it by ear so I'm not sure if this is 100% correct. 

UPDATE 04/21/17: Corrected intro part. Thanks mryoyo9

THE MAINE - I'M SORRY
from the album 

Intro
e|-------7------------8-7---------------7-5-----|
B|-7-8-7------7-7-8-7-----7-----7-7-8-7-----7-5-|
G|----------------------------------------------| 
D|----------------------------------------------| 
A|----------------------------------------------|
E|----------------------------------------------|

Solo
e|--------------7-10----------------------------|--------------7-10----------------------------|
B|-7-7-8-7-5--------------7-7-8-7-5-----8-------|-7-7-8-7-5--------------7-7-8-7-5------7------|
G|----------------------------------------7-----| ------------------------------------7--------| 
D|----------------------------------------------|----------------------------------------------|
A|----------------------------------------------|----------------------------------------------|
E|----------------------------------------------|----------------------------------------------|
Suggest correction
comments
print report bad tab
1 comment total.
+1 reply
mryoyo9 31 Jun 27, 2015 01:11 PM

Made it more accurate, I think for the intro

e|-------7------------8-7-----------7-5---------|
B|-7p8p7------7-7p8p7--------7-7p87-----7-5-----|
G|----------------------------------------------|
D|----------------------------------------------|
A|----------------------------------------------|
E|----------------------------------------------|

guest
You may want to rate the tab now too:
select rating
Wanna post a correction for this tab? Suggest correction